Oops, an error
Loading. Please wait.

12 Bar Blues Tab

version 4
version 4

Whole song

by Misc
25,110 views 15 this week
2 commentsread comments
1 2 3 4 5
x 5
add to favorites
launch autoscroll
font size
0
reset
how to read this tab
guitar tuner
Autoscroll
slow
fast
+/-
esc
set tempo
stop
Help us to improve Ultimate-Guitar.com Take our survey!
×
-----------------------------------------------------------------
 12 bar blues in A minor
-----------------------------------------------------------------
Tabbed by:Olin C
Email:

Tuning:Standard

this is something I was taught and it is what I use whenever I jam with someone. I think 
is a very useful tab if you want to learn how to play rythm guitar

e|-------------------|
B|-------------------|
G|-------------------|
D|-2-2-4-4-2-2-4-4---|x4
A|-0-0-0-0-0-0-0-0---|
E|-------------------|

e|-------------------|
B|-------------------|
G|-2-2-4-4-2-2-4-4---|
D|-0-0-0-0-0-0-0-0---|x2
A|-------------------|
E|-------------------|

e|-------------------|
B|-------------------|
G|-------------------|
D|-2-2-4-4-2-2-4-4---|x2
A|-0-0-0-0-0-0-0-0---|
E|-------------------|

e|-------------------|
B|-------------------|
G|-2-2-4-4-2-2-4-4---|
D|-0-0-0-0-0-0-0-0---|x2
A|-------------------|
E|-------------------|

turnaround

e|-----------------------------------|
B|-----------------------------------|
G|-4-4-6-6-4-4-6-6-2-2-4-4-2-2-4-4---|
D|-2-2-2-2-2-2-2-2-0-0-0-0-0-0-0-0---|
A|-----------------------------------|
E|-----------------------------------|

repeat and end on

e|---|
B|---|
G|-2-|
D|-2-|
A|-0-|
E|---|

get a friend to play the blues scale over this and you will sound awesome
Suggest correction
comments
print report bad tab
2 comments total.
0 reply
guitarfreak3465 10 Apr 20, 2009 05:31 PM

awesome man exactly wat i was looking 4

0 reply
nmc1234 794 Dec 12, 2010 07:02 PM

awesome, thanks

guest
You may want to rate the tab now too:
select rating
Wanna post a correction for this tab? Suggest correction