Oops, an error
Loading. Please wait.

Advance Australia Fair Tab

by Misc
17,867 views 33 this week
14 commentsread comments
1 2 3 4 5
x 15
add to favorites
×
Save as Personal and add changes to this tab that will be seen only by you. Learn more ›
×
You can save this tab as Personal to edit and correct it or add notes. All changes will be seen only by you. Learn more »
save as personal
new!
launch autoscroll
font size
0
reset
how to read this tab
guitar tuner
Autoscroll
slow
fast
+/-
esc
set tempo
stop
Author
Tuning
E A D G B E
|0-5-0---0----5-5-5----9-7-5-4----5-7-----------------------------|
|------2----------------------------------------------------------|
|-----------------------------------------------------------------|
|-----------------------------------------------------------------|
|-----------------------------------------------------------------|
|-----------------------------------------------------------------|

|0-5-0---------0---0-0--9--7--5--4---2---0------------------------|
|-------2---------------------------------------------------------|
|---------2-------------------------------------------------------|
|-----------------------------------------------------------------|
|-----------------------------------------------------------------|
|-----------------------------------------------------------------|

|0--2--4--5--2-0--------0---2---4--10-9---7-----------------------|
|-----------------2-2---------------------------------------------|
|-----------------------------------------------------------------|
|-----------------------------------------------------------------|
|-----------------------------------------------------------------|
|-----------------------------------------------------------------|

|0-2--4---5---2--0--5--5--7--9----5--7---4---5--------------------|
|-----------------------------------------------------------------|
|-----------------------------------------------------------------|
|-----------------------------------------------------------------|
|-----------------------------------------------------------------|
|-----------------------------------------------------------------|

|9--10-9--7--5----4-6--0--5---9---5--7-4--5-----------------------|
|-----------------------------------------------------------------|
|-----------------------------------------------------------------|
|-----------------------------------------------------------------|
|-----------------------------------------------------------------|
|-----------------------------------------------------------------|
Suggest correction
comments
print report bad tab
14 comments total. Showing first comments.
+2 reply
Rockn_Clay 131 May 26, 2004 08:00 PM

YAY AUSTRALIA RULES!!! GOOD TAB BUDDY!!

0 reply
Rockn_Clay 131 May 26, 2004 08:00 PM

YAY AUSTRALIA RULES!!! GOOD TAB BUDDY!!

0 reply
Rockn_Clay 131 May 26, 2004 08:00 PM

YAY AUSTRALIA RULES!!! GOOD TAB BUDDY!!

guest
You may want to rate the tab now too:
select rating
Wanna post a correction for this tab? Suggest correction