Oops, an error
Loading. Please wait.

Basic 12 Bar Blues Bass Tab

by Misc
16,169 views 18 this week
no commentswrite comment
1 2 3 4 5
poor
x 5
add to favorites
launch autoscroll
font size
0
reset
guitar tuner
Tab Pro tools
  • play this tab
  • loop segment
  • change instrument
  • show fretboard
  • metronome
Autoscroll
slow
fast
+/-
esc
set tempo
stop
Difficulty
novice
Play fluently at a moderate pace ;)

G----------------------------------------|
D-------2-5-2----2-5-2----2-5-2----2-5-2-|
A----3---------3--------3--------3-------|
E----------------------------------------|


G----2-5-2---2-5-2-|
D--3-------3-------|
A------------------|
E------------------|

G----------------------|
D-------2-5-2----2-5-2-|
A----3---------3-------|
E----------------------|

G----4-7-4----2-5-2-|
D--5--------3-------|
A-------------------|
E-------------------|

G------------------|
D------------------|
A-3-----0-1-2------|
E---4-3------------|

G----------------------------------------|
D-------2-5-2----2-5-2----2-5-2----2-5-2-|
A----3---------3--------3--------3-------|
E----------------------------------------|


G----2-5-2---2-5-2-|
D--3-------3-------|
A------------------|
E------------------|

G----------------------|
D-------2-5-2----2-5-2-|
A----3---------3-------|
E----------------------|

G----4-7-4----2-5-2-|
D--5--------3-------|
A-------------------|
E-------------------|

G-------------------|
D---2-3-4-5-3-2-0---|
A-3-----------------|
E-------------------|
comments
print report bad tab
I want to post or [tab]
guest
You may want to rate the tab now too:
select rating
Please do not post tabs as comments. Select "correction" instead!