Oops, an error
Loading. Please wait.

Basic Band Blues Bass Tab

by Misc
12,838 views 24 this week
3 commentsread comments
1 2 3 4 5
accurate
x 6
add to favorites
launch autoscroll
font size
0
reset
guitar tuner
Tab Pro tools
  • play this tab
  • loop segment
  • change instrument
  • show fretboard
  • metronome
×
Best way to learn
"Basic Band Blues"
Autoscroll
slow
fast
+/-
esc
set tempo
stop
Contributor
This is that big of a song but its a great warm-up to get your fingers moving.


 #1
G|--------------------------------------| (x1)
D|--------------------------------------|
A|-----2-4-5-4-2---------2-4-5-4-2------|
E|-0-4-----------4-0-0-4-----------4-0--|

 #2
G|--------------------------------------| (x1)
D|-----2-4-5-4-2---------2-4-5-4-2------|
A|-0-4-----------4-0-0-4----------4-0---|
E|--------------------------------------|

Now you can play this as much as you want just keep going from the first to the second
comments
print report bad tab
3 comments total.
0 reply
herrly wrote on December 5 2004, 12:00 am

it actually goes

|-------------------------------
|--------0---------------0------
|----2-4---4-2-------2-4---4-2--
|0-4-----------4-0-4-----------4

|--------0---------------0------
|----2-4---4-2-------2-4---4-2--
|0-4-----------4-0-4-----------4
|-------------------------------

|-----------------------4-------2
|--------0----------1-4-------2--
|----2-4---4-2----2-------0-4----
|0-4-----------4-----------------

0 reply
Corbs wrote on March 3 2005, 12:00 am

phht beginner ***

0 reply
Corbs wrote on March 3 2005, 12:00 am

phht beginner ***

I want to post or [tab]
guest
You may want to rate the tab now too:
select rating
Please do not post tabs as comments. Select "correction" instead!