Oops, an error
Loading. Please wait.

Beyblade Theme Tab

version 2
version 2

Whole song

by Misc
11,225 views 24 this week
1 commentread comment
1 2 3 4 5
excellent!
x 4
add to favorites
launch autoscroll
font size
0
reset
how to read this tab
guitar tuner
Autoscroll
slow
fast
+/-
esc
set tempo
stop
Help us to improve Ultimate-Guitar.com Take our survey!
×
Author
This is my very first tab, I thought id start with something simple.  
I am extremely confident that it is 100% correct.  Enjoy:

Main Riff:

e|---------------=4-4-4-4-4-4-4--------------------2-2-2-2-2-2-2--------|
B|----------------------------------------------------------------------|
G|----------------------------------------------------------------------|
D|----------------------------------------------------------------------|
A|-----------------------------------1h2-2-2-1h2-2-2--------------------|
E|-1h2-2-2-1h2-2-2------------------------------------------------------|

Bridge:

e|----------------|
B|----------------|
G|----------------|
D|-6----8----9----|
A|-6----8----9----|
E|-4----6----7----|

Chorus 1:

e|----------------|
B|----------------|
G|-8----6----4----|
D|-8----6----4----|
A|-6----4----2----|
E|----------------|


Chorus 2:

e|----------------------------------------------|
B|----------------------------------------------|
G|-8----6----4----8----6----4-------------------|
D|-8----6----4----8----6----4----6----8----9----|
A|-6----4----2----6----4----2----6----8----9----|
E|-------------------------------4----6----5----|

Verse 1:
                                                       x2
e|----------------------------------------------------|
B|----------------------------------------------------|
G|----------------------------------------------------|
D|-4-x-x-4-x-x-4-x-x-4-x-x-9-x-x-9-x-x-9-x-x-9-x-x----|
A|-4-x-x-4-x-x-4-x-x-4-x-x-9-x-x-9-x-x-9-x-x-9-x-x----|
E|-2-x-x-2-x-x-2-x-x-2-x-x-7-x-x-7-x-x-7-x-x-7-x-x----|

Verse 2:
                                                       
e|--------------------------------------------------------|
B|--------------------------------------------------------|
G|--------------------------------------------------------|
D|-4-x-x-4-x-x-4-x-x-4-x-x-9-x-x-9-x-x-9-x-x-9-x-x--------|
A|-4-x-x-4-x-x-4-x-x-4-x-x-9-x-x-9-x-x-9-x-x-9-x-x--------|
E|-2-x-x-2-x-x-2-x-x-2-x-x-7-x-x-7-x-x-7-x-x-7-x-x--------|

e|--------------------------------------------------------|
B|--------------------------------------------------------|
G|--------------------------------------------------------|
D|-6-x-x-6-x-x-6-x-x-6-x-x-11-x-x-11-x-x-11-x-x-11-x-x----|
A|-6-x-x-6-x-x-6-x-x-6-x-x-11-x-x-11-x-x-11-x-x-11-x-x----|
E|-4-x-x-4-x-x-4-x-x-4-x-x-9--x-x-9--x-x-9--x-x-9--x-x----|


End Riff:
                            x4
e|-------------------------|   |--------------|
B|-------------------------|   |--------------|
G|-------------------------|   |--------------|
D|-4--4-4------------------|   |-4--4-4--4----|
A|-4--4-4------------------|   |-4--4-4--4----|
E|-2--2-2-5-7-5-5-7-5-5----|   |-2--2-2--2----|

Order:
Main Riff x2
Bridge
Verse 1
Chorus 1
Main Riff
Verse 2
Chorus 2
End Riff
                                         

                                         By: Joel Neverson
Suggest correction
comments
print report bad tab
1 comment total.
+1 reply
Dridoc 97 wrote on August 8 2012, 11:12 am

It's almost perfect. It just needs 2 corrections to make it more genuine.

1)Main riff
you need to add more notes (make it a powerchord and slide instead of hammer-on like so:

e|-----------------4-4-4-4------------------------2-2-2-2-|
B|--------------------------------------------------------|
G|--------------------------------3/4-4-4-3-4-4-4---------|
D|-3/4-4-4-3/4-4-4----------------3/4-4-4-3-4-4-4---------|
A|-3/4-4-4-3/4-4-4----------------1/2-2-2-1/2-2-2---------|
E|-1/2-2-2-1/2-2-2----------------------------------------|

2)End riff (first bit)

again, add more notes (powerchord it)

e|----------------------| x4
B|----------------------|
G|---------4-4-2-4-2----|
D|-4-4-4-2-4 4-2-4-2----|
A|-4-4-4-2-2-2-2-2-2----|
E|-2-2-2-2--------------|

That are the corrections, otherwise it's an excellent tab :D
Keep up the good work!

guest
You may want to rate the tab now too:
select rating
Wanna post a correction for this tab? Suggest correction