Oops, an error
Loading. Please wait.

Blues Exercise Bass Tab

by Misc
4,494 views 1 this week
no commentswrite comment
1 2 3 4 5
1 last vote to show rating
add to favorites
launch autoscroll
font size
0
reset
guitar tuner
Autoscroll
slow
fast
+/-
esc
set tempo
stop
Help us to improve Ultimate-Guitar.com Take our survey!
×
Author
G||--------------8--8---------|------------6--6---------|
D||*---------5-8------8-------|----------6------6-------|
A||*--6-----------------6--5--|--4----------------4--3--|
E||---------------------------|-------------------------|


                                                 
------------2---2---------|--------------------||
----------4---4---4-------|-------------------*||
--2-----------------2--0--|--1----------------*||
--------------------------|--------------------||


                                                        
--------------------------||---------------------------|
*------------------0--3--*||*-------------------0--1-2-|
*-------0--3--1----------*||*--------3-0-3-1-----------|
---1----------------------||---1-----------------------|


                                                                
-----------------------------|--------------------||-----------|
--3-----------------0--1-----|-------------------*||*------3---|
----3-----0-3-0-1-1----------|-------------------*||*--3-5---5-|
------1--------------------0-|--1-----------------||-----------|


                                                             
-----------------------------|-----------------------------||
--3-------0---0--------0--2--|--3-----3--------1-2-3------*||
----0---1---2---3-0-4--------|----0-----0---3--------3----*||
-----------------------------|-------------------------1---||


                                                           
---------7-7-----------------|--------7---------------4---|
*-----7-------4--4-5-0-6--7--|------7---7-------4--7----7-|
*--5-------------------------|--5---------5---5-----------|
-----------------------------|----------------------------|


                               
-------7---------------------||
-----7----7--4--0-4---5-6-7-*||
--5-------------------------*||
-----------------------------||
Suggest correction
Give kudos to tab author, rate the tab!
1 2 3 4 5
comments
print report bad tab
guest
You may want to rate the tab now too:
select rating
Wanna post a correction for this tab? Suggest correction