Oops, an error
Loading. Please wait.

Blues Licks Tab

version 1
version 1

Whole song

by Misc
114,071 views 42 this week
11 commentsread comments
1 2 3 4 5
worth learning
x 18
add to favorites
launch autoscroll
font size
0
reset
how to read this tab
guitar tuner
Tab Pro tools
  • play this tab
  • loop segment
  • change instrument
  • show fretboard
  • metronome
×
Best way to learn
"Blues Licks"
Autoscroll
slow
fast
+/-
esc
set tempo
stop
Contributor
Heres some blues licks, hope you like them.

                           slash_2k4@hotmail.com

E||--------5--|--8b---8b---8b-5-----5~---|--5/---------10------------------|
B||--5h-7-----|------------------7-------|-----13b---------10--10--13b-13b-|
G||-----------|--------------------------|---------------------------------|
D||-----------|--------------------------|---------------------------------|
A||-----------|--------------------------|---------------------------------|
E||-----------|--------------------------|---------------------------------|


  A7                                  E7                    
--------5--------5-----------------|-----------------------|
--10~---5--5-----5--------------7--|--------------------4/-|
--------------8b----8--7--5-----7--|--5b-------------------|
-----------------------------7-----|-----7-----------------|
-----------------------------------|--------7--7~----------|
-----------------------------------|-----------------------|


  Am                                                                  
----5-----------------------------|----------------------------------|
--5---8h5---8h5---5-----5---------|----------------------------------|
----------7-----7---7h5---7h5---7h|--5-----5-------------------------|
------------------------------7---|----7h5---7h5---7h5-----5---------|
----------------------------------|--------------7-----7h5---7h5-----|
----------------------------------|------------------------------8h5-|


                              A7              D7               
---------------------------|------------------------------5---|
---------------------5-7h5-|--7h8h7h5-----------------5h8---8/|
-------------------6-------|----------8h7h5---7---5h7---------|
---------------------------|----------------7---7-------------|
---------------------------|----------------------------------|
--8-5--5/--3--5~-----------|----------------------------------|


  A7        E7      A7           A                                    
-----8------------------------|--4/5-3-----3-------------------------|
--10---10h9h8-------10~-------|--------5-4---5-4-3-4h3---3-4h3-------|
--------------9h8h9-----------|------------------------5-------5-2---|
------------------------------|------------------------------------5-|
------------------------------|--------------------------------------|
------------------------------|--------------------------------------|


                                         F5                         
--------------------------------------|----------------------------|
--------------------------------------|--13b-------13~-------11/13-|
--2-----------------------------------|--13b-------13~-------------|
----2-5h4h2-----2------------------15-|-------15-------------------|
------------3h4---3h2--------15-13----|----------------------------|
----------------------3-4-5-----------|----------------------------|


                                                                              
-16-----15----13---------------------------|---------13----16b------16~---|
----13----13----15r-13-16-13-15--13--------|------13----13----------------|
------------------------------15----15r-13-|--15b-------------------------|
-------------------------------------------|------------------------------|
-------------------------------------------|------------------------------|
-------------------------------------------|------------------------------|

                      
--13~---------------||
--------------------||
--------------------||
--------------------||
--------------------||
--------------------||
comments
print report bad tab
11 comments total. Showing first comments.
0 reply
TehRealSlipKnoT wrote on October 17 2004, 12:00 am

7h5... wtf is up with that? do u mean 5h7 or 7p5??

0 reply
TehRealSlipKnoT wrote on October 17 2004, 12:00 am

...i just noticed u ***ed up alot on this tab man

0 reply
JK10 wrote on January 9 2005, 12:00 am

its awesome

I want to post or [tab]
guest
You may want to rate the tab now too:
select rating
Please do not post tabs as comments. Select "correction" instead!