Oops, an error
Loading. Please wait.

Chinese Riff Tab

21,633 views 18 this week
24 commentsread comments
1 2 3 4 5
x 52
add to favorites
launch autoscroll
font size
0
reset
how to read this tab
guitar tuner
×
Best way to learn
"Chinese Riff"
Autoscroll
slow
fast
+/-
esc
set tempo
stop
Tab: Chinese Song
Tabbed by: MM
COmposer: Who CaRes!


Here we go.

Standard Tuning

E|-------------------------------------------------|
B|-------------------------------------------------|
G|----------7777---55-------5----------------------|
D|----------5555---33--00---3----------------------|
A|-------------------------------------------------|
e|-------------------------------------------------|

MY oWn CreaTion! Well i got it from some stuff but still.. you know.

RATE!!
Suggest correction
comments
print report bad tab
24 comments total. Showing first comments.
-1 reply
SBC_lead 10 Mar 05, 2004 07:00 PM

it would be better if it were like this:

e|--------------------------
b|------7777-55-33-5--------
g|------7777-55-33-5--------
d|------5555-33-00-3--------
a|--------------------------
e|--------------------------

Still, good work. But I preffer the power chords (sounds cooler).

+2 reply
tommilee 161 Oct 16, 2005 04:14 AM

short tab

+3 reply
StuC 30 Dec 01, 2005 09:22 AM

^agreed, it should also be tabbed correctly... and shouldnt be called a riff

guest
You may want to rate the tab now too:
select rating
Wanna post a correction for this tab? Suggest correction