Oops, an error
Loading. Please wait.

Chinese Sound Tab

version 1
version 1

Whole song

15,732 views 15 this week
14 commentsread comments
1 2 3 4 5
x 33
add to favorites
launch autoscroll
font size
0
reset
how to read this tab
guitar tuner
×
Best way to learn
"Chinese Sound"
Autoscroll
slow
fast
+/-
esc
set tempo
stop
I think It's kinda fun cause it's used in a lot of movies and stuff.
a real nice tab for the beginners.

E --12-12-12-12-10-10-------10-10-------
B --------------------12-12-------------
G --------------------------------------
D --------------------------------------
A --------------------------------------
E --------------------------------------

just repeat it a couple of times.

if you have an electric guitar crank up the volume and distortion and play this 4 fun.

E --12-12-12-12-10-10--------10-10------
B --12-12-12-12-10-10--12-12-10-10------
G ---------------------12-12------------
D --------------------------------------
A --------------------------------------
E --------------------------------------

If you have problems, please don't mail me.
Suggest correction
comments
print report bad tab
14 comments total. Showing first comments.
0 reply
outboundhat 10 Oct 06, 2003 08:00 PM

thats japanese

0 reply
American Badass 10 Jan 13, 2004 07:00 PM

thats good. i myself one day was
messing around one day, and i came
up with this.

e|----14-14-14-14--12--12--9--9--12-|
b|----14-14-14-14--12--12--9--9--12-|
G|----------------------------------|
D|----------------------------------|
A|----------------------------------|
E|----------------------------------|

0 reply
Tom 22 Aug 13, 2004 08:00 PM

any fool can work that out

guest
You may want to rate the tab now too:
select rating
Wanna post a correction for this tab? Suggest correction