Oops, an error
Loading. Please wait.

Double Stop Tab

by Misc
51,402 views 6 this week
2 commentsread comments
1 2 3 4 5
x 6
add to favorites
launch autoscroll
font size
0
reset
how to read this tab
guitar tuner
Autoscroll
slow
fast
+/-
esc
set tempo
stop
Help us to improve Ultimate-Guitar.com Take our survey!
×
Author
-------------------------------------------------------------------------------
                             TECHNIQUE - Double Stop
-------------------------------------------------------------------------------
Tabbed by:Jeremy Grimes         
Email:aggie6970@yahoo.com
This is my first tab for Blues I hope its right any changes that need to be done plz email me 
Tuning: Standard 

e|---------5--|----8-7-5---------5--|---8-8-7---7-5---5----------------------|
B|---5--7-----|----7-7-5----5--7----|---7-7-7---7-5---5---7-7----------------|
G|------------|---------------------|---------------------7-7----------------|
D|------------|---------------------|----------------------------------------|
A|------------|---------------------|----------------------------------------|
E|------------|---------------------|----------------------------------------|

e|------------------------|-------------------5--|--8-7-5-----------5--------|
B|--5----7-----8-----7----|-5---7---8---5--7-----|--7-7-5---5---7------------|
G|--6----7-----9-----7----|-6---7---9------------|---------------------------|
D|-----7----7-----7-----7-|---7---7--------------|---------------------------|
A|------------------------|----------------------|---------------------------|
E|------------------------|----------------------|---------------------------|

e|--8-8-7--7--5-5--------|-----------------------|---------------------5-----|
B|--7-7-7--7--5-5--7-7---|--5----7----8----7-----|-5----7---8---5--7---------|
G|-----------------7-7---|--6----7----9----7-----|-6----7---9----------------|
D|-----------------------|-----7----7----7---7---|---7----7------------------|
A|-----------------------|-----------------------|---------------------------|
E|-----------------------|-----------------------|---------------------------|

e|-8---5-7-5---------5-|--8-8--7-7--5-5--------|-----------------------------|
B|-7---5-7-5---5--7----|--7-7--7-7--5-5---7-7--|--5---7---8---7--------------|
G|---------------------|------------------7-7--|--6---7---9---7--------------|
D|---------------------|-----------------------|----7---7---7---7------------|
A|---------------------|-----------------------|-----------------------------|
E|---------------------|-----------------------|-----------------------------|

e|-----------------5-|---8-7-5---------5--|---8-8--7-7-5-5-------------------|
B|-5---S\----5--7----|---7-7-5---5--7-----|---7-7--7-7-5-5---7-7-------------|
G|-6--8--7-----------|--------------------|------------------7-7-------------|
D|----7--6-----------|--------------------|----------------------------------|
A|----8--7-----------|--------------------|----------------------------------|
E|-------------------|--------------------|----------------------------------|

e|-----------------|--------------------5--8-7-5-------5--8-8-7-7-5----------|
B|-5---7---8---7---|-5---7---8---5---7-----7-7-5--5-7-----7-7-7-7-5--7-7-----|
G|-6---7---9---7---|-6---7---9---------------------------------------7-7-----|
D|---7---7---7---7-|---7---7-------------------------------------------------|
A|-----------------|---------------------------------------------------------|
E|-----------------|---------------------------------------------------------|

e|-------------------|--------------------5--|--8--5-7-5--------5------------|
B|-5---7---8----7----|--5---7---8---5--7-----|--7--5-7-5--5--7---------------|
G|-6---7---9----7----|--6---7---9------------|-------------------------------|
D|---7---7---7----7--|----7---7--------------|-------------------------------|
A|-------------------|-----------------------|-------------------------------|
E|-------------------|-----------------------|-------------------------------|

e|-8-7-5-------|----------------------|--------------------------------------|
B|-7-7-5--7-7--|--5----7----8----7----|--5----S\-----------------------------|
G|--------7-7--|--6----7----9----7----|--6---7--6----------------------------|
D|-------------|-----7---7----7----7--|------6--5----------------------------|
A|-------------|----------------------|------5--4----------------------------|
E|-------------|----------------------|------6--5----------------------------|


This is a technique for Blues called the Double Stop. I hope you like it!!


| /  slide up
| \  slide down
| h  hammer-on
| p  pull-off
| ~  vibrato
| +  harmonic
| x  Mute note
===============================================================================
Suggest correction
comments
print report bad tab
2 comments total.
0 reply
cheesedips 20 Jul 12, 2014 03:58 PM

beat brasil down to the groung..lol

0 reply
vmccullagh1 10 Dec 02, 2015 05:40 AM

Tab Pro won't open this tab

guest
You may want to rate the tab now too:
select rating
Wanna post a correction for this tab? Suggest correction