Oops, an error
Loading. Please wait.

Frere Jacques Bass

by Misc
4,268 views 1 this week
5 commentsread comments
1 2 3 4 5
x 14
add to favorites
launch autoscroll
font size
0
reset
guitar tuner
×
Best way to learn
"Frere Jacques"
Autoscroll
slow
fast
+/-
esc
set tempo
stop
-------------------------------------------------------------------------------
			     Frere Jacques- unknown
-------------------------------------------------------------------------------
Tabbed By : robert

Tuning:

G|---0-2-4-0---0-2-4-0--|
D|----------------------|
A|----------------------|
E|----------------------|

G|---4-5-7---4-5-7------|
D|----------------------|
A|----------------------|
E|----------------------|
        
   Play Fairly Quick

G|---7-8-7-6-5-0---7-8-7-6-5-0---|
D|-------------------------------|
A|-------------------------------|
E|-------------------------------|
        
G|-------------------|
D|---5-0-5---5-0-5---|
A|-------------------|
E|-------------------|

  I'm pretty sure this is it.  It sounds good.
Suggest correction
comments
print report bad tab
5 comments total. Showing first comments.
+1 reply
AdamPomphrett 10 Jan 16, 2003 07:00 PM

Tuning:

G|---0-2-4-0---0-2-4-0--|
D|----------------------|
A|----------------------|
E|----------------------|

G|---4-5-7---4-5-7------|
D|----------------------|
A|----------------------|
E|----------------------|

Play Fairly Quick

G|---7-9-7-5-4-0---7-9-7-5-4-0---|
D|-------------------------------|
A|-------------------------------|
E|-------------------------------|

G|-------------------|
D|---5-0-5---5-0-5---|
A|-------------------|
E|-------------------|

This is the correct version.

0 reply
Jonwood 157 Apr 16, 2007 11:25 PM

0 reply
marcelaguiar 619 Sep 30, 2007 06:27 AM

adampomphrett is 100% correct

guest
You may want to rate the tab now too:
select rating
Wanna post a correction for this tab? Suggest correction