Oops, an error
Loading. Please wait.

Happy Birthday Tab

version 1
version 1

Whole song

Interactive

by Misc
1,191,562 views 2,904 this week
70 commentsread comments
1 2 3 4 5
x 320
add to favorites
launch autoscroll
font size
0
reset
how to read this tab
guitar tuner
Autoscroll
slow
fast
+/-
esc
set tempo
stop
Help us to improve Ultimate-Guitar.com Take our survey!
×
E--0--0--2--0--5--4--|
B--------------------|
G--------------------|
D--------------------|
A--------------------|
E--------------------|

E--0--0--2--0--7--5--|
B--------------------|
G--------------------|
D--------------------|
A--------------------|
E--------------------|

E--0--0--12--9--5--5--4--2--|
B---------------------------|
G---------------------------|
D---------------------------|
A---------------------------|
E---------------------------|

E--10--10--9--5--7--5--|
B----------------------|
G----------------------|
D----------------------|
A----------------------|
E----------------------|
Suggest correction
comments
print report bad tab
70 comments total. Showing first comments.
+5 reply
Gareze 10 May 03, 2002 12:00 AM

Yeah, nice tab

+5 reply
xsuckxmyxassx 50 Jan 01, 2004 12:00 AM

good.

+14 reply
LedZepplin64 20 Feb 04, 2005 12:00 AM

im a retard...

guest
You may want to rate the tab now too:
select rating
Wanna post a correction for this tab? Suggest correction