Oops, an error
Loading. Please wait.

Katusha Tab

version 1
version 1

Whole song

by Misc
7,112 views 9 this week
3 commentsread comments
1 2 3 4 5
x 6
add to favorites
launch autoscroll
font size
0
reset
how to read this tab
guitar tuner
Autoscroll
slow
fast
+/-
esc
set tempo
stop
This is a russian folk song, it's very easy to learn.

This is the first part
e|-1-2-0-2-2-1-0-1--1-2-4-1-4-4-2-1-0
b|----------------0------------------
g|-----------------------------------
d|-----------------------------------
a|-----------------------------------
e|-----------------------------------
Then its like this
e|7-12-10-12-10-8-8-7-5-7-0-8-5-7-3-5-5-3-2-0
b|--------------------------------------------
g|--------------------------------------------
d|--------------------------------------------
a|--------------------------------------------
e|--------------------------------------------
Suggest correction
comments
print report bad tab
3 comments total.
0 reply
Homeskillet 0 Mar 08, 2002 07:00 PM

Yey
Go russian man arkady!

+2 reply
come2cky 0 Oct 19, 2002 08:00 PM

e|-0-2-3-0-3-3-2-0-2--2-3-5-2-5-5-3-2-0
b|-------------------0-----------------
g|-------------------------------------
d|-------------------------------------
a|-------------------------------------
e|-------------------------------------

e|7-12-10-12-10-8-8-7-5-7-0-8-5-7-3-5-5-3-2-0
b|--------------------------------------------
g|--------------------------------------------
d|--------------------------------------------
a|--------------------------------------------
e|--------------------------------------------

-1 reply
soney 1o stahr 41 Sep 27, 2006 08:37 AM

where are the chords?
very bad

guest
Wanna post a correction for this tab? Suggest correction