Oops, an error
Loading. Please wait.

La Bamba bass

by Misc
7,231 views 1 this week
3 commentsread comments
1 2 3 4 5
x 3
add to favorites
×
Save as Personal and add changes to this tab that will be seen only by you. Learn more ›
×
You can save this tab as Personal to edit and correct it or add notes. All changes will be seen only by you. Learn more »
launch autoscroll
font size
0
reset
guitar tuner
backing track
0:00
0:00
edit
Autoscroll
slow
fast
+/-
esc
set tempo
stop
Author
Difficulty
This is played on a five string bass, so if you don't have enough strings, try and 
something out. Sorry.


B|--------------------------------------------------------------------------|
G|--------------------------------------------------------------------------|
D|--------0------2---0--------------------------------------0------2--0-----|
A|-----2-----3-----------------0----3---3---2---0-------2-------3-----------|
E|--3------------------------------------------------3----------------------|

B|-----------------------------------------------------------|
G|-----------------------------------------------------------|
D|--------0--------2---0-------------------------------------|
A|-----2-------3-------------------0---3----3----2---0-------|
E|--3--------------------------------------------------------|

B|-----------------------------------------------------------|
G|-----------------------------------------------------------|
D|----------0--------2----0------------------0----------0----|
A|------2---------3-----------------0---2---------3----------|
E|--3--------------------------------------------------------|

B|-----------------------------------------------------------|
G|-----------------------------------------------------------|
D|---------------------------------0-------2---0-------------|
A|--0---3---3---2---0-----------2-------3--------------------|
E|---------------------------3-------------------------------|

B|--------------------------------------------------------|
G|--------------------------------------------------------|
D|--------0--------2---0----------------------------------|
A|-----2-------3-------------------0---3----3----2---0----|
E|--3-----------------------------------------------------|

B|--------------------------------------------------------|
G|--------------------------------------------------------|
D|------------------0-------------------------------------|
A|--0---0---3---3--------------0------3-------------------|
E|--------------------------------------------------------|

B|---------------1--1---0---------------------------------|
G|-----------2--------------2-----------------------------|
D|--0--0--3-----------------------------------------------|
A|------------------------------------------3-------------|
E|----------------------------------3---------------------|

B|---------------1--1---0---------------------------------|
G|-----------2--------------2-----------------------------|
D|--0--0--3-----------------------------------------------|
A|------------------------------------------3-------------|
E|----------------------------------3---------------------|

Questions or comments?
E-Mail me at black_and_white_0001@yahoo.com
Suggest correction
Creating personal tab
Creating personal tab
You can edit any tab online and save it as your Personal.

You can edit, replace or remove any tab part or add personal notes – all changes will be seen only by you.

Personal tabs can be accessed anytime from any device, even offline.
Learn more »
Give kudos to tab author, rate the tab!
1 2 3 4 5
comments
print report bad tab
3 comments total.
0 reply
n0r3mac 32 Jan 22, 2008 07:26 PM

good

0 reply
Jake900210 10 Mar 09, 2010 11:31 AM

Sounds like its missing a note or something, I can't quite get it.

I might be wrong, I'll listen to the song and see.

0 reply
Vinman03 22 Aug 17, 2014 08:52 PM

didn't like this contribution

guest
You may want to rate the tab now too:
select rating
Wanna post a correction for this tab? Suggest correction