Oops, an error
Loading. Please wait.

Minnesota Vikings - Skol Vikings Fight Song Tab

by Misc
4 views 1 this week
no commentswrite comment
1 2 3 4 5
3 more votes to show rating
add to favorites
launch autoscroll
font size
0
reset
how to read this tab
guitar tuner
Autoscroll
slow
fast
+/-
esc
set tempo
stop
Help us to improve Ultimate-Guitar.com Take our survey!
×
Author
Difficulty
intermediate
About this tab version
Guitar tab chord melody for the Minnesota Vikings fight song Skol Vikings. Arranged this version for guitar. Was this info helpful? Yes No
e|--------------------|--------------------|---------------|-------5---|------------------|
B|-8-10-8--8--8----8--|-8-10-8-10-10-8--10-|-10-9-10-13-10-|-8-7-8-5-8-|-7-10---8-8--8--8-|
G|-9----9--9--9--8-9--|-9----9-10-10-9--10-|-10---10-------|-9-9-8-6-6-|--7---7-----------|
D|-10---10-10-10---10-|-10--10-10-10-10-10-|-12---12----12-|-9-----7-7-|--------9-10-12-9-|
A|--------------------|--------------------|---------------|-----------|------------------|
E|--------------------|--------------------|---------------|-----------|------------------|

e|--------------------|--------------------|----------------------|-8--7-7--7-\-12-|
B|-8-10-8--8--8----8--|-8--8--8--8--8--10--|-10-10-10-10-8--9--10-|-10-8-10-8-\-13-|
G|-9----9--9--9--8-9--|-9--9--9--9--9--10--|----------------------|-10-7-7--7-\-12-|
D|-10---10-10-10---10-|-10-10-10-10-10-10--|----------------------|----------------|
A|--------------------|--------------------|----7--8--9--10-11-12-|----------------|
E|--------------------|--------------------|-10-------------------|----------------|



************************************

| \  Slide down

************************************
Suggest correction
Give kudos to tab author, rate the tab!
1 2 3 4 5
comments
print report bad tab
guest
You may want to rate the tab now too:
select rating
Wanna post a correction for this tab? Suggest correction