Oops, an error
Loading. Please wait.

Phychedellic Mother bass

by Misc
549 views 1 this week
no commentswrite comment
1 2 3 4 5
3 more votes to show rating
add to favorites
×
Save as Personal and add changes to this tab that will be seen only by you. Learn more ›
×
You can save this tab as Personal to edit and correct it or add notes. All changes will be seen only by you. Learn more »
launch autoscroll
font size
0
reset
guitar tuner
edit
Autoscroll
slow
fast
+/-
esc
set tempo
stop
Author
Difficulty
Tabbed by: Tommy
Email: d3athwish456@yahoo.com
Tuning: E, A, D, G

Fairly easy, I like it. Hoped you would too. I usually don't use a pick, but for this, 
not chew up my nail, I used a pick because of the chords.

4/4 = beat

[Intro/Ending]
G|-7-7-7-7-|---5-5-5-|-5-5-7-7-|-7-7-7-7-|-5-7-24*-|
D|-5-5-5-5-|-5-5-5-5-|-5---7-7-|-7-7-5-5-|-5-5-----|
A|---------|---------|---------|---------|---------|
E|---------|---------|---------|---------|---------|

[Verse]
G|-2*------|3*-------|2-1-0-1*-|----9*---|--9------|--9\-2-1-|
D|---------|---------|---------|---7*-7--|---7-----|---------|
A|---------|---------|---------|---------|---------|---------|
E|---------|---------|---------|---------|---------|---------|

G|-0-1*----|
D|---------|
A|---------|
E|---------|

G|-3-3-3-3-|5-5-4-5--|5-5-5-5-7|-7-6-7---|
D|---------|---------|---------|---------|
A|---------|---------|---------|---------|
E|---------|---------|---------|---------| X4

G|-5-3-2-1-|-0-1*-1--|
D|---------|---------|
A|---------|---------|
E|---------|---------|

[Bridge]
G|-9-9-9-9-|7-7-7-7-9|9-7-7-9-9|---9---9-|7-9---9----|
D|---------|--------7|7-7-7-9-9|-----7---|----7---9/-|
A|---------|---------|---------|---------|-----------|
E|---------|---------|---------|---------|-----------|

G|---------|--5-6----|
D|-0-3-5-6-|7--------|
A|---------|---------|
E|---------|---------|

[Chorus]
G|-7*------|-9-9---9*|
D|----5*-9*|-7-7-9-7*|
A|-------9*|---------|
E|---------|---------| X4

G|-7---7---|---------|---------|---------|
D|---------|5---5---9|---9---7-|--9-7*---|
A|---5---5-|---------|---------|---------|
E|---------|--3---3--|-7---7---|5--------|

G|-7-7-7-7-|---------|---------|---------|
D|---------|5-5-5-5-7|-7-7-7---|---------|
A|---------|---------|-------7-|7-5-5----|
E|---------|---------|---------|---------|

G|-7*------|9-9---9*-|
D|----5*-9*|7-7-9-7*-|
A|-------9*|---------|
E|---------|---------|

[Verse 2]
G|-7-9-----|7-9-10-12|-10-9-7--|---------|---------|-----5-6-|7--------|
D|-----7-9-|---------|--------9|-7-5-7-5-|3-0-2-4-5|-6-7-----|---------|
A|---------|---------|---------|---------|---------|---------|---------|
E|---------|---------|---------|---------|---------|---------|---------|

G|-5-3-3-3-|3-5-5-4-5|---5-5-5-|5-7-7-6-7|
D|---------|---------|---------|---------|
A|---------|---------|---------|---------|
E|---------|---------|---------|---------| X4

G|-5-3-2-1-|-0-1*-1--|
D|---------|---------|
A|---------|---------|
E|---------|---------|

[Bridge 2]
G|-9-9-9-9-|11-11-11-|11-12-11-|12-11----|
D|---------|---------|---------|------12-|
A|---------|---------|---------|---------|
E|---------|---------|---------|---------|

G|---------|---------|---------|
D|-7h5h7h5h|7h5h7h5h7|h5-------|
A|---------|---------|---------|
E|---------|---------|---------|

[Chorus]
G|-7*------|9-9---9*-|
D|----5*-9*|7-7-9-7*-|
A|-------9*|---------|
E|---------|---------| X4

G|-7---7---|---------|---------|---------|
D|---------|5---5---9|---9---7-|--9-7*---|
A|---5---5-|---------|---------|---------|
E|---------|--3---3--|-7---7---|5--------|

G|-7-7-7-7-|---------|---------|---------|
D|---------|5-5-5-5-7|-7-7-7---|---------|
A|---------|---------|-------7-|7-5-5----|
E|---------|---------|---------|---------|

G|-7*------|9-9---9*-|
D|----5*-9*|7-7-9-7*-|
A|-------9*|---------|
E|---------|---------|

[Post-Chorus]
G|-77777777|-55555555|3333-4444|0000-1111|-0000-22|22-------|
D|---------|---------|---------|---------|--------|---------|
A|---------|---------|---------|---------|--------|---------|
E|---------|---------|---------|---------|--------|---------|

G|-\9*-----|
D|-\7*-----|
A|---------|
E|---------|

[Chorus2]
G|-7-7-7-7-|5-5-5-5--|---------|---------|
D|---------|--------7|-7-7-7-9-|9-9-9----|
A|---------|---------|---------|---------|
E|---------|---------|---------|---------|

G|-7-7-7-7-|7-7-7-7-9|-9-9-9-5-|3-5-3/7*-|
D|---------|5-5-5-5-7|-7-7-7-3-|1-3-1/5*-|
A|---------|---------|---------|---------|
E|---------|---------|---------|---------|

[Intro/Ending]
G|-7-7-7-7-|--5-5-5-5|-5-7-7-7-|7-7-7-5-7|-24*-----|
D|-5-5-5-5-|5-5-5-5-5|---7-7-7-|7-5-5-5-5|---------|
A|---------|---------|---------|---------|---------|
E|---------|---------|---------|---------|---------|

            
            
Suggest correction
Creating personal tab
Creating personal tab
You can edit any tab online and save it as your Personal.

You can edit, replace or remove any tab part or add personal notes – all changes will be seen only by you.

Personal tabs can be accessed anytime from any device, even offline.
Learn more »
Give kudos to tab author, rate the tab!
1 2 3 4 5
comments
print report bad tab
guest
You may want to rate the tab now too:
select rating
Wanna post a correction for this tab? Suggest correction