Oops, an error
Loading. Please wait.

Solo Riff bass

by Misc
7,889 views 1 this week
2 commentsread comments
1 2 3 4 5
x 4
add to favorites
×
Save as Personal and add changes to this tab that will be seen only by you. Learn more ›
×
You can save this tab as Personal to edit and correct it or add notes. All changes will be seen only by you. Learn more »
launch autoscroll
font size
0
reset
guitar tuner
edit
Autoscroll
slow
fast
+/-
esc
set tempo
stop
Author
Difficulty
-------------------------------------------------------------------------------
			     Solo Riff1 - Misc
-------------------------------------------------------------------------------

Tabbed By :lethalspartan
e-mail:leemanpace@bellsouth.net

Tuning: Standard
 beat is a nice slow, even beat

G|-----7-------5-------5--------4-------------|X3
D|---7------3-------5--------5----------------|third time through slow down
A|-0-----0-------0--------0-------------------|
E|--------------------------------------------|

G|--------7---------7--------9----------9-----|
D|----9----------9--------7---------7---------|
A|-0----------0--------0--------0-------------|
E|--------------------------------------------|

G|-------6----------6--------11--------11-----|
D|----7----------7--------9----------9--------|
A|-0----------0--------0----------0-----------|
E|--------------------------------------------|

G|--------7---------7--------9----------9-----|
D|----9----------9--------7---------7---------|
A|-0----------0--------0--------0-------------|
E|--------------------------------------------|

G|-------6-------6---------7--------7---------|
D|----7--------7-------5--------5-------------|let last 7 ring
A|-0---------0------0-------0-----------------|
E|--------------------------------------------|

G|------3--------3---------5----------5-------|
D|---5--------5--------3----------3-----------|
A|-0-------0-------0----------0---------------|
E|--------------------------------------------|

G|--------2---------2----------3-----------3--|
D|-----3--------3----------1-----------1------|
A|--0-------0------------0----------0---------|
E|--------------------------------------------|

G|------7------7-------7----------7-----------|
D|---5------5--------8--------8---------------|
A|-0------0--------0-------0------------------|
E|--------------------------------------------|

G|---------9---------9---12-------------------|
D|-----10-------10-------13-------------------|
A|--0-------0------------0--------------------|
E|--------------------------------------------|


 i made this solo up myself. add your own effects to it. i want your constructive 
my email is leemanpace@bellsouth.net....enjoy!
| /  slide up
| \  slide down
| h  hammer-on
| p  pull-off
| ~  vibrato
| +  harmonic
| x  Mute note
============================================================================

            
            
Suggest correction
Creating personal tab
Creating personal tab
You can edit any tab online and save it as your Personal.

You can edit, replace or remove any tab part or add personal notes – all changes will be seen only by you.

Personal tabs can be accessed anytime from any device, even offline.
Learn more »
comments
print report bad tab
2 comments total.
0 reply
Original_Fire 10 Mar 14, 2007 06:26 PM

Wow, this is so simple and yet so amazing.

0 reply
BreAkdOwn396 83 Jun 11, 2007 07:01 PM

nice great style

guest
You may want to rate the tab now too:
select rating
Wanna post a correction for this tab? Suggest correction