Oops, an error
Loading. Please wait.

Twinkle Twinkle Little Star Bass

version 2
version 2

Whole song

Interactive

by Misc
2,819 views 9 this week
no commentswrite comment
1 2 3 4 5
2 more votes to show rating
add to favorites
launch autoscroll
font size
0
reset
guitar tuner
×
Best way to learn
"Twinkle Twinkle Little Star"
Autoscroll
slow
fast
+/-
esc
set tempo
stop
Author
Difficulty
novice
Was given an exercise to work out 4 nursery rhymes by ear so I did a couple and amazing 
putting them up mainly so I feel I've contributed to this site in more ways than posting 
crap in the pit... enjoy?

-------------------------------------------------------------------------------
Twinkle Twinkle Little Star/ Frére Jacques / Amazing Grace / Row Row Row Your Boat - Miscellaneous
-------------------------------------------------------------------------------

Tabbed By : Insanity^2
e-mail: ashes7492@hotmail.com (I'm not bothered if it's wrong so don't bother correcting 
;) )

Tuning: Standard

Twinkle Twinkle Little Star:

G|----------7-7----|----------------|----------------|----------------|
D|------9-9-----9--|-7-7-6-6--------|-9-9-7-7-6-6----|-9-9-7-7-6-6----|
A|--7-7------------|---------9-9-7--|-------------9--|-------------9--|
E|-----------------|----------------|----------------|----------------|

Frére Jacques:

G|----------|---------|--------|--------|---6---------|---6---------|-------|-------|
D|------6---|----6----|-6-7-9--|-6-7-9--|-9---9-7-6---|-9---9-7-6---|-------|-------|
A|--7-9---7-|-7-9---7-|--------|--------|-----------7-|-----------7-|-7---7-|-7---7-|
E|----------|---------|--------|--------|-------------|-------------|---7---|---7---|

Amazing Grace: (Not a nursery rhyme but meh ;) )

G|------|-4------4-|----------|------|-4------4-|----7--|
D|----5-|---7--5---|-7-5-7-5--|----5-|---7--5---|--7----|
A|--5---|----------|----------|--5---|----------|-------|
E|------|----------|----------|------|----------|-------|

Row Row Row Your Boat:

G|-----------|-----------|-9-9-9-------------------|--------------|
D|---------6-|-6---6-7-9-|-------9-9-9-6-6-6-------|-9-7-6--------|
A|-7-7-7-9---|---9-------|-------------------7-7-7-|-------9-7-7--|
E|-----------|-----------|-------------------------|--------------|


| /  slide up
| \  slide down
| h  hammer-on
| p  pull-off
| ~  vibrato
| +  harmonic
| x  Mute note
===============================================================================
Suggest correction
Give kudos to tab author, rate the tab!
1 2 3 4 5
comments
print report bad tab
guest
You may want to rate the tab now too:
select rating
Wanna post a correction for this tab? Suggest correction