Oops, an error
Loading. Please wait.

Wedding March Bass

18,600 views 6 this week
3 commentsread comments
1 2 3 4 5
x 11
add to favorites
launch autoscroll
font size
0
reset
guitar tuner
×
Best way to learn
"Wedding March"
Autoscroll
slow
fast
+/-
esc
set tempo
stop
Standard Tuning, EADG

>INTRO
G-0--0-0-0-0--0-0-0-0
D--------------------
A--------------------
E--------------------

G-0-5-5-5--0-7-4-5
D-----------------
A-----------------
E-----------------

G-0-5-9-12-9-7-5-6-5-4-5-7
D-------------------------
A-------------------------
E-------------------------

>ENDING
G-0-5-5-5--0-7-4-5--0-5-9-12-9-7-5-4-5
D-------------------------------------
A-------------------------------------
E-------------------------------------
>(REPEAT 2X)
Suggest correction
comments
print report bad tab
3 comments total.
-2 reply
SPFan 10 Mar 06, 2006 08:29 AM

oh yeah this ****ing suxxx **** **** shit **** dick

+1 reply
sk8aholic44 10 Apr 25, 2006 04:49 PM

good job, I'm using this for my sister's wedding-lol.

+1 reply
msmelendez 21 Jul 22, 2008 03:32 PM

G-0-5-9/12-9-7-5-4-5-7
D-------------------------
A-------------------------
E-------------------------

guest
You may want to rate the tab now too:
select rating
Wanna post a correction for this tab? Suggest correction