Oops, an error
Loading. Please wait.

A World Without Danger Theme Tab

12,538 views 21 this week
5 commentsread comments
1 2 3 4 5
excellent!
x 6
add to favorites
launch autoscroll
font size
0
reset
how to read this tab
guitar tuner
Autoscroll
slow
fast
+/-
esc
set tempo
stop
Help us to improve Ultimate-Guitar.com Take our survey!
×
Author
CodeXANA 100
Tabalature for "A World Without Danger" ("Une Monde Sans Danger") Melody section (TV 
Only)
Tabbed by CodeXANA, 19:21, 25/9/08
98.5% Accurate, Or better! Chords given too!
Dashes mark 1/4 beat(---- indicates 1 beat). 4/4 moderate (120).


Intro:
 F                C5               Dm               Bb
|----8---6---5---|----8---6---5---|----8---6---5---|----8---6-5-----|
|6-6---6---6---6-|--6---6---6---6-|--6---6---6---6-|--6---6-----6-8-|
|----------------|----------------|----------------|----------------| X2
|----------------|----------------|----------------|----------------|
|----------------|----------------|----------------|----------------|
|----------------|----------------|----------------|----------------|

Bridge:
 F5               C5               Dm               Bb5
|----------------|----------------|----------------|----------------|
|----------------|----------------|----------------|----------------|
|----------------|----------------|----------------|----------------|
|----------------|----------------|----------------|----------------|
|88-88-88-88-888>|33-33-33-33-333<|55-55-55-55-555>|1(let ring)--<6-|
|----------------|----------------|----------------|----------------|

Verse (Guitar 1. Guitar 2 plays Intro Section x4)
 F5               C5                   D5               Bb5
|----------------|----------------| 1.|----------------|----------------|
|--6-6-----6-6---|--6-6---5---5---|   |--6-6-----6-6---|--6-6---6-5-----|
|5-------5-------|5---------5-----|   |5-------5-------|5-----------5---|
|----------------|----------------|   |----------------|----------------|
|----------------|----------------|   |----------------|----------------|
|----------------|----------------|   |----------------|----------------|

   D5               Bb5
2.|----------------|----------------|
  |6(let ring)---6-|11-10-8---6-6---|
  |----------------|----------------|
  |----------------|----------------|
  |----------------|----------------|
  |----------------|----------------|

Chorus: (Hard to tab a rythym for this part, I'm afraid!)
 F5               C5               D5               Bb5
|8-6-5-----------|8-6-5-------5---|8-6-5-----------|8-6-5-------5---|
|------8-5-6-8-3-|------6-6-8---6-|------8-5-6-8-3-|------6-6-8---6-|
|----------------|----------------|----------------|----------------|
|----------------|----------------|----------------|----------------|
|----------------|----------------|----------------|----------------|
|----------------|----------------|----------------|----------------|

The chorus (shifted up 12 frets) doubles as an outro.
E|20-18-17----------------|20-18-17----------17----| X2
B|---------20-17-18-20-15-|---------18-18-20----18-|
This is the playing order of the TV Theme Version (Code Lyoko).
Intro X2
Bridge X1
Verse Riff + Part 1 X1
Verse Riff + Part 2 X1
Chorus X1
Chorus (shift) x1

Chords
  F5     C5   D5    Bb5
|-----|-----|-----|-----|
|-----|-----|-----|-----|
|--10-|--5--|--7--|--3--|
|--10-|--5--|--7--|--3--|
|--8--|--3--|--5--|--1--|
|-----|-----|-----|-----|

Piano script also available at Tadashiru Music Online, and this will really help get 
Europop feel for the song. For best effect, have a friend play a transcript of this tab on 
Have fun!
Suggest correction
What's this?
You can suggest a correction to this tab. Community and Mods will review your correction and vote to approve or reject it.
comments
print report bad tab
5 comments total. Showing first comments.
+2 reply
CarthageForever 141 wrote on June 9 2009, 08:35 pm

One of the best shows of all time, thanks for posting this.

~Carthage (Yes it relates to the show. lol)

0 reply
guitarist405th 94 wrote on March 14 2012, 11:06 pm

great tab but you missed one part at verse it should be

e|-----------------------------------|
b|---6-6---6-6---6-6--5-3-5----------|
g|-5-----5-----5---------------------|
d|-----------------------------------|
a|-----------------------------------|
E|-----------------------------------|

|------------------------------------|
|----6-6----6-6----6-6--5---5--------|
|--5-----5------5---------5----------|
|------------------------------------|
|------------------------------------|
|------------------------------------|

0 reply
guitarist405th 94 wrote on March 14 2012, 11:08 pm

it should be the one with the 5 3 5 at the end not the one with the 5 5 5 at the end

guest
You may want to rate the tab now too:
select rating
Please do not post tabs as comments. Select "correction" instead!