Oops, an error
Loading. Please wait.

Adventure Time - Beemos Song Tab

10,046 views 3 this week
no commentswrite comment
1 2 3 4 5
x 3
add to favorites
launch autoscroll
font size
0
reset
how to read this tab
guitar tuner
Autoscroll
slow
fast
+/-
esc
set tempo
stop
Help us to improve Ultimate-Guitar.com Take our survey!
×
Author
Difficulty
This tab is specifically for Conor.

  
E|----------------|----------------|
B|----------------|----------------|
G|--------------3-|--3---3---3---3-|
D|*robot sounds*--|----------------|
A|----------------|----------------|
E|----------------|3---3---3---3---|


  Finn, why are you...              Jake, you know...
  Bb               Eb               Gm               Cm      Bb/D
E|----------------|----------------|----------------|----------------|
B|----------------|8-8-8-8-8-8-8-8-|----------------|4-4-4-4-6-6-6-6-|
G|7-7-7-7-7-7-7-7-|8-8-8-8-8-8-8-8-|3-3-3-3-3-3-3-3-|5-5-5-5-7-7-7-7-|
D|8-8-8-8-8-8-8-8-|8-8-8-8-8-8-8-8-|5-5-5-5-5-5-5-5-|5-5-5-5-8-8-8-8-|
A|8-8-8-8-8-8-8-8-|6-6-6-6-6-6-6-6-|5-5-5-5-5-5-5-5-|3-3-3-3-5-5-5-5-|
E|6-6-6-6-6-6-6-6-|----------------|3-3-3-3-3-3-3-3-|----------------|


  Romance...                        Hurting...
  Eb               Gm      F        Eb               Cm  Dm  Eb  F     
E|----------------|----------------|----------------|----------------|
B|8-8-8-8-8-8-8-8-|1111111110101010|8-8-8-8-8-8-8-8-|4-4-6-6-8-8-1010|
G|8-8-8-8-8-8-8-8-|1212121210101010|8-8-8-8-8-8-8-8-|5-5-7-7-8-8-1010|
D|8-8-8-8-8-8-8-8-|1212121210101010|8-8-8-8-8-8-8-8-|5-5-7-7-8-8-1010|
A|6-6-6-6-6-6-6-6-|101010108-8-8-8-|6-6-6-6-6-6-6-6-|3-3-5-5-6-6-8-8-|
E|----------------|----------------|----------------|----------------|


Guys, you know...                   You two please stop...
  F                                 Gm
E|----------------|----------------|----------------|----------------|
B|----------------|----------------|----------------|----------------|
G|2-2-2-2-2-2-2-2-|2-2-2-2-2-2-2-2-|3-3-3-3-3-3-3-3-|3-3-3-3-3-3-3-3-|
D|3-3-3-3-3-3-3-3-|3-3-3-3-3-3-3-3-|5-5-5-5-5-5-5-5-|5-5-5-5-5-5-5-5-|
A|3-3-3-3-3-3-3-3-|3-3-3-3-3-3-3-3-|5-5-5-5-5-5-5-5-|5-5-5-5-5-5-5-5-|
E|1-1-1-1-1-1-1-1-|1-1-1-1-1-1-1-1-|3-3-3-3-3-3-3-3-|3-3-3-3-3-3-3-3-|


All that you've...        oooh just hug...         A-greed 
  Eb      Bb/D     Cm      F        Eb               Bb
E|----------------|----------------|----------------|----------------|
B|8-8-8-8-6-6-6-6-|4-4-4-4-10101010|8-8-8-8-8-8-8-8-|----------------|
G|8-8-8-8-7-7-7-7-|5-5-5-5-10101010|8-8-8-8-8-8-8-8-|7-7-7-7-7-7-7-7-|
D|8-8-8-8-8-8-8-8-|5-5-5-5-10101010|8-8-8-8-8-8-8-8-|8-8-8-8-8-8-8-8-|
A|6-6-6-6-5-5-5-5-|3-3-3-3-8-8-8-8-|6-6-6-6-6-6-6-6-|8-8-8-8-8-8-8-8-|
E|----------------|----------------|----------------|6-6-6-6-6-6-6-6-|


  Love will not de-lete.
  Eb      F        Bb
E|----------------|6---------------|
B|8-8-8-8-10101010|6---------------|
G|8-8-8-8-10101010|7---------------|
D|8-8-8-8-10101010|8---------------|
A|6-6-6-6-8-8-8-8-|8---------------|
E|----------------|6---------------|
Suggest correction
Give kudos to tab author, rate the tab!
1 2 3 4 5
comments
print report bad tab
guest
You may want to rate the tab now too:
select rating
Wanna post a correction for this tab? Suggest correction