Oops, an error
Loading. Please wait.

Adventure Time - Everything Stays bass

version 1
version 1

Whole song

Interactive

19,960 views 33 this week
3 commentsread comments
1 2 3 4 5
x 10
add to favorites
×
Save as Personal and add changes to this tab that will be seen only by you. Learn more ›
×
You can save this tab as Personal to edit and correct it or add notes. All changes will be seen only by you. Learn more »
launch autoscroll
font size
0
reset
guitar tuner
edit
Autoscroll
slow
fast
+/-
esc
set tempo
stop
---> Beautiful song! I didn't made the cover, just tabbed it,
so if you guys wanna see the original, here it is:
https://www.youtube.com/watch?v=_Ei76zNNCts

---> The song is mostly palm muted, and finger picked


[Intro]

G|---------------------12---14-----4-5------0---------|
D|----5-7---9p7--12-14----0------7---5----2---0-------|
A|--5--------------------------7----------------3-2-0-|
E|3-------8-----3-------------------------------------|

[Bridge]


G|----------4----------------5-----------------------------|
D|------5-7----5-------5-7------------------5---5----------|
A|5---5--------------5-----6----7---7-3----5---5---5-------|
E|--3-------------3---------------0------------------------|


[Chorus]

G|---------12---------------2------------4-2--------|
D|10----10------------------0----------------5------|
A|------------7--------7---------2--2-3-------3-----|
E|---------------0----0--0--------------------------|

G|------4----4-2-0-2---8----9-------------------------|
D|5-4-2-0----------0---7----9-------------------------|
A|-------------------3--------------------------------|
E|----------------------------------------------------|

************************************

| p  Pull-off

************************************

            
            
Suggest correction
Creating personal tab
Creating personal tab
You can edit any tab online and save it as your Personal.

You can edit, replace or remove any tab part or add personal notes – all changes will be seen only by you.

Personal tabs can be accessed anytime from any device, even offline.
Learn more »
comments
print report bad tab
3 comments total.
0 reply
Elio257 10 Nov 26, 2015 01:20 PM

Very close, but the middle section is this:

g|----------4----------------5-----------------------------|
d|------5-7----5-------5-7------------------5---5----------|
a|5---5--------------5-----6----7---7-3----5---5---5-------|
e|--3-------------3---------------0------------------------|

Chorus
g|---------12---------------2------------4-2--------|
d|10----10------------------0----------------5------|
a|------------7--------7---------2--2-3-------3-----|
e|---------------0----0--0--------------------------|

+2 reply
bjader20 57 Jan 28, 2016 01:40 PM

There are several wrong notes, try listening to the higher quality soundcloud original (incase you were using the youtube to try and figure it out) https://soundcloud.com/steven-universeonsc/adventure-time-everthing-stays-official-prod-rebecca-sugar-sung-by-olivia-olson

Im going to submit my own version because there are too many problems, most notably the 2nd note of the first riff, the first arpeggio of the second line too does not go past the a string.

guest
You may want to rate the tab now too:
select rating
Wanna post a correction for this tab? Suggest correction