Oops, an error
Loading. Please wait.

Adventure Time - Everything Stays tab

version 2
version 2

Whole song

  • Most of the guides for playing that song seem to o... Show more
  • Fingerstyle arrangement of melody with simultaneou... Show more

Interactive

787 views 48 this week
no commentswrite comment
1 2 3 4 5
3 more votes to show rating
add to favorites
×
Save as Personal and add changes to this tab that will be seen only by you. Learn more ›
×
You can save this tab as Personal to edit and correct it or add notes. All changes will be seen only by you. Learn more »
launch autoscroll
font size
0
reset
how to read this tab
guitar tuner
edit
Autoscroll
slow
fast
+/-
esc
set tempo
stop
About this tab version
Fingerstyle arrangement of melody with simultaneous chordal backing (one guitar part). Second section is fingerstyle accompaniment inspired by the accompaniment you can hear here: https://www.youtube.com/watch?v=pozDLjFUVbM. Was this info helpful? Yes No
The first section is fingerstyle arrangement of the melody.
The second section is fingerstyle accompaniment to the melody.

I have spaced out the notes to roughly show rhythm/duration, and placed lyrics in line above to help.
Each chord name written above lands on a downbeat.

Since there is no melody in the Intro and accompaniment sections, below these sections I have indicated
the rhythm: I have subdivided the beat into 12 beats (6 beats on G chord, 6 beats on C chord),
with '+' indicating each half of the measure so you can count 2 sets of 6 beats
(i.e. '+' shows where to play each chord),'^' showing where to play any other new note,
and '.' showing where to hold a note for another 1/12th beat.
If unsure, it's more or less like the melody!

[Intro]
   G                  C
e|-------------------------------|
B|-------------------------0-----|
G|-------------------------0-----| x2
D|------------0h2----------2-----|
A|---------2----------3----------|
E|--3----------------------------|
    + . .  ^  ^ ^     + .  ^ ...

[Verse]
   Let's  go in the garden         You'll find something waiting
    G                C               G                 B7
e|--------------------------------|------------0h3-----7----------|
B|--0------3--0h3----0------------|--0------3----------7---10-----|
G|------------------------0-------|--------------------8----------|
D|------------0h2-----------------|------------0h2-----7----------|
A|---------2---------3------------|---------2----------9----------|
E|--3-----------------------------|--3-----------------7----------|


 Right there where you left it, lying       up si-ide down.
    Em                C                     G           D
e|-----------------7--5p3----------------|------------------------|
B|--10-----8h10-------5---------5p3------|--0----0h3----3---------|
G|--7-----------------5------------------|--0-----------2---------|
D|--9------------------------------------|--------------0---------|
A|--7-----------------3------------------|------------------------|
E|---------------------------------------|--3---------------------|


    When you finally find it        You'll see how it's faded   The...
    G                C               G                 B7
e|--------------------------------|------------0h3-----7------------|
B|--0------3--0h3----0------------|--0------3----------7---10----8--|
G|------------------------0-------|--------------------8------------|
D|------------0h2-----------------|------------0h2-----7------------|
A|---------2---------3------------|---------2----------9------------|
E|--3-----------------------------|--3-----------------7------------|


 ...un - der side is lighter   when you     turn it    a-round   |Everything...
    Em                C                     G               D
e|----------------7---5p3----------------|-------------0---------------------|
B|--10-----8h10-------5---------5p3------|--0-----3---------3-----7--5-------|
G|--7-----------------5------------------|--0---------------2-----------8----|
D|--9------------------------------------|------------------0----------------|
A|--7-----------------3------------------|-----------------------------------|
E|---------------------------------------|--3--------------------------------|
                                                                 [upbeat to chorus]

[Chorus]
...stays right where you   left it.   Everything  stays   But it still...
    Am     Am               Em         Em           D      B7
e|--5------7-----5-------|-----------------------|--2----------------|
B|--5------5----------8--|--8----------8--10--8--|--3------4---------|
G|--5------5-------------|--9---9------9---------|--2------4---4-----|
D|--7------7-------------|--9----------9---------|--0------7------7--|
A|--7------7-------------|--7----------7---------|---------6---------|
E|--5------5-------------|-----------------------|---------7---------|


...changes   Ever so     slightly,  Dayly and  nightly,   In little...
    Em        G7           C         C7          G         G
e|------------7--5------|--3---------6--5--3--|--3---------------0--|
B|------------6-----8---|--5--5------4--------|--3--3------0--3-----|
G|--0---------7---------|--5---------5--------|--0---------0--------|
D|--2--2------5---------|--5---------3--------|--0---------0--------|
A|--2---------5---------|--3---------3--------|------------2--------|
E|--0-------------------|---------------------|--3------------------|


...ways, where everything   stays
    D           B7            Em
e|-------------------------|-----------|
B|--3-----------0----------|-----------|
G|--2------0--------2---0--|-----------|
D|--0-----------1----------|--2--------|
A|--------------2----------|--2--------|
E|-------------------------|--0--------|
                                  [this last bar lasts half a measure,
                                 i.e. go straight on to next part after 6 beats rather than 12]

[Intro again] - [to accompaniment part]
    G                 C
e|-------------------------------|
B|-------------------------0-----|
G|-------------------------0-----| x2
D|------------0h2----------2-----|
A|---------2----------3----------|
E|--3----------------------------|
    + . .  ^  ^ ^     + .  ^ ...

[Verse] - [accompaniment]
    G                 C            G                 B7
e|-------------------------------|-----------------------------|
B|-------------------------0-----|------------------------0----|
G|-------------------------0-----|------------------------2----|
D|------------0h2----------2-----|-----------0h2----------1----|
A|---------2----------3----------|---------2---------2---------|
E|--3----------------------------|--3--------------------------|
    + . .  ^  ^ ^     +  . ^ ...    + . .  ^ ^ ^     + .  ^ ...

    Em               C             G          D
e|------------------------------|------------------------|
B|------------------------------|-------------3------0---|
G|--------------------------0---|-------------2----2-----|
D|--2----------------2---2------|--0----------0----------|
A|----------3p2p0----3----------|-------3--2-------------|
E|--0---------------------------|--3---------------------|
    + . .   ^ ^ ^    +.  ^. ^.     + .. ^  ^. +... ^ ^

    G                 C             G                B7
e|-------------------------------|-----------------------------|
B|-------------------------0-----|------------------------0----|
G|-------------------------0-----|------------------------2----|
D|------------0h2----------2-----|-----------0h2----------1----|
A|---------2----------3----------|---------2---------2---------|
E|--3----------------------------|--3--------------------------|
    + . .  ^  ^ ^     + .  ^...     + . .  ^ ^ ^     + .  ^...

    Em                 C             G          D
e|--------------------------------|------------------------|
B|--------------------------------|-------------3----------|
G|----------------------------0---|-------------2------2---|
D|--2------------------2---2------|--0----------0----------|
A|----------3p2p0------3----------|-------3--2-------------|
E|--0-----------------------------|--3---------------------|
    + . .   ^ ^ ^      +.  ^. ^.     +..  ^  ^. + . .. ^ .

[Chorus] - [accompaniment]
    Am    Am           Em Em        D     B7     Em    G7
e|--------0---------|-----0------|--3-----2---|--0-----1-----1---|
B|--1--------1------|-------0----|--2-----0---|--0-----0----0----|
G|--2-----------2---|--0------0--|--3-----2---|--0-----0---------|
D|--2-----2---------|--2--2------|--0-----1---|--2-----0---------|
A|--0-----0---------|------------|--------2---|--2-----2---------|
E|------------------|--0--0------|------------|--0-----3---------|
    +     +. ^. ^.     +  +.^.^.    +     +      +     + . . ^^.

    C     C7           G     G            D     B7
e|--0-----3---------|--3-----3---------|--2-----2--------|
B|--1-----4---6-4---|--3-----3---------|--3-----0--------|
G|--0-----3---------|--0-----0---------|--2-----2--2-----|
D|--2-----5---------|--0-----0---------|--------1----1---|
A|--3-----3---------|--2-----2--p0-----|--------2--------|
E|------------------|--3-----------3---|-----------------|
    +     +..  ^ ^.    +     +.. ^ ^.     +     +..^ ^.

[Reprise] - [2nd half of chorus]
          [Ever so  slightly, Dayly and  nightly, In little ways, Everything stays.]
    Em    G7           C     C7           G     G            D     B7          Em
e|--0-----1-----1---|--0-----3---------|--3-----3---------|--2-----2--------|-------|
B|--0-----0---0-----|--1-----4---6-4---|--3-----3---------|--3-----0--------|-------|
G|--0-----0---------|--0-----3---------|--0-----0---------|--2-----2--2-----|-------|
D|--2-----0---------|--2-----5---------|--0-----0---------|--------1----1---|--2----|
A|--2-----2---------|--3-----3---------|--2-----2--p0-----|--------2--------|--2----|
E|--0-----3---------|------------------|--3------------3--|-----------------|--0----|
    +     +..  ^ ^.    +     +.. ^ ^.     +     +.. ^  ^.    +     +..^ ^.     +
                                                                        [this last bar lasts half a measure.]

[Outro]
    G                 C
e|-------------------------------|
B|-------------------------0-----|
G|-------------------------0-----| x2
D|------------0h2----------2-----|
A|---------2----------3----------|
E|--3----------------------------|
    + . .  ^  ^ ^     + .  ^...



***********************************
Legend:


| h = hammer on
| p = pull off
| ^ = play note on this 1/12th beat of the measure.
| . = hold previous note on this 1/12th beat of the measure.
| + = start of half a measure.

*************************************

Lyrics have been added to melodic section (first verse and chorus) to guide rhythm,
but the line in the Reprise is not added for rhythm (just to indicate which section is being reprised)
(Reprise is optional - some versions of live performance have this).

The second verse and chorus is accompaniment.

            
            
Suggest correction
Creating personal tab
Creating personal tab
You can edit any tab online and save it as your Personal.

You can edit, replace or remove any tab part or add personal notes – all changes will be seen only by you.

Personal tabs can be accessed anytime from any device, even offline.
Learn more »
Give kudos to tab author, rate the tab!
1 2 3 4 5
comments
print report bad tab
guest
You may want to rate the tab now too:
select rating
Wanna post a correction for this tab? Suggest correction