Oops, an error
Loading. Please wait.

Adventure Time - Im Just Your Problem Bass Tab

version 1
version 1

Whole song

Interactive

62,129 views 192 this week
3 commentsread comments
1 2 3 4 5
excellent!
x 20
add to favorites
launch autoscroll
font size
0
reset
guitar tuner
Tab Pro tools
  • play this tab
  • loop segment
  • change instrument
  • show fretboard
  • metronome
×
Best way to learn
"Adventure Time - Im Just Your Problem"
Autoscroll
slow
fast
+/-
esc
set tempo
stop
Contributor
Difficulty
intermediate
I'M JUST YOUR PROBLEM -- Adventure Time (Marceline)
La da da da daa I'm gonna bury you in the ground.
G----------------------------------------------------------------------------|
D-----2-----2----------------------------------------------------------------|
A--------------2--------------2--3-------3-----------------------------------|
E-------------------------------------------3-3------------------------------|
La da da da daa I'm gonna bury you in my sound. I'm gonna
-----------------------------------------------------------------------------|
--------------------------------------------0-0------------------------------|
---------------2--------------2--3-------3-----------------------------------|
---3--0-----0----------------------------------------------------------------|
drink the red from your pretty pink face. I'm gonna...
-----------------------------------------------------------------------------|
----0--2----2----------------------0-0---------------------------------------|
---------------2-----2--3-------3--------------------------------------------|
-----------------------------------------------------------------------------|
(Princess Bubblegum being a prude) -- (Marceline yelling)
-----------------------------------------------------------------------------|
-----0-----------------------------------------------------------------------|
----------------2--------------2--3-------3----------------------------------|
--------0----0-------------------------------0-0--0---0----------------------|
Sorry I don't treat you like a goddess Is that what you want me to do?
-----------------------------------------------------------------------------|
------2----------------------------------------------------------------------|
---------------------------2-------2--3-3--------------3---------------------|
----------------------------------------------------------3------------------|
Sorry I don't treat you like you're perfect, Like all your little loyal subjects do.
-----------------------------------------------------------------------------|
-----------------------------------------------------------------------------|
------------------------------2-----------3----------------------------------|
------0-------------------------------------------------------3--------------|
Sorry I'm not made of sugar, Am I not sweet enough for you? Is that...
-----------------------------------------------------------------------------|
-----------------------------------------------------0-0-0-------------------|
---------------------------2---------3-----3--3-3-3--------------------------|
---3--0----------------------------------------------------------------------|
...why you always avoid me? That must be such an inconvenience to you. Well...
------------------------------------------------------------------------------|
----------2-------------------------------------------------------------------|
------------------------------2-----------2--3-----------3-3-3----------------|
----------------------------------------------------------------3-3-----------|
... I-----------'m just your pro----------------------------------------------|blem.
------------------------------------------------------------------------------|
------------------------------------------------------------------------------|
----2--3--3-3-3----5--6--6-6-6---2-2------------------------------------------|
------------------0--0----------0---------------------------------------------|
I-----'m just your pro--------------------------------------------------------|blem.
------------------------------------------------------------------------------|
------------------------------------------------------------------------------|
------7--7-7-7--------0-0-2-3-------------------------------------------------|
------------------0-0---------------------------------------------------------|
It's like I'm not even a person, am I?
--------------------------------------|
--------------------------------------|
----2--3--3-3-3----5--6--6-6-6---2-2--|
------------------0--0----------0-----|
I-----'m just your pro----------------|blem. Well...
--------------------------------------|
--------------------------------------|
------7--7-7-7--------0-0-2-3---------|
------------------0-0-----------------|
This is where the rhythm is rather freestyle so just go with it.
...I shouldn't have to justify what I do. I shouldn't have to prove anything to you.
-----------------------------------------------------------------------------|
-----------------------------------------------------------------------------|
-----0-0--0-0-2-3-----------------0--2-3-3-------3--2----0--0--3--3----------|
-------------------0-0-2-3-3-0-0-----------3-0-0--0--0-----------------------|
I'm sorry that I exist, I forget what landed me on your black list.
-----------------------------------------------------------------------------|
-----------------------------------------------------------------------------|
-----0-0--0-0-2-3-----------------0--2-3-3-------3--2----0--0--3--3----------|
-------------------0-0-2-3-3-0-0-----------3-0-0--0--0-----------------------|
But I shouldn't have to be the one that makes up with you.
-----------------------------------------------------------------------------|
-------------------------------------1--1-1----------------------------------|
---------------2--2-2-----3--3-3---------------------------------------------|
-----0--0-0------------------------------------------------------------------|
So, why do I want to? Why do I want to?
-----------------------------------------------------------------------------|
------------------1-1-1-1--2-2-2-2-------------------------------------------|
------2--3-3-3-3--------------------0-0-2-3----------------------------------|
-----------------------------------------------------------------------------|
To bury you in the ground... and drink the blood from your...
-----------------------------------------------------------------------------|
-----------------------------------------------------------------------------|
---------0----------2----------3---------------------------------------------|
-------------------------------------------------3---------------------------|
comments
print report bad tab
3 comments total.
+1 reply
LIOwolverine wrote on August 15 2013, 04:29 am

When marceline argues with bubblegum, the last part
G--------------------------------------------------------------------------
D-----0--------------------------------------------------------------------
A----------------2--------------2--3-------3-------------------------------
E--------0----0-------------------------------0-0--0---0-------------------

is actually

E--------0----0-------------------------------3-3--3---3-------------------

0 reply
marecline wrote on January 26 2015, 11:18 am

i really want to learn this on my bass, but i honestly have no idea how to read it.. what do the numbers represent??

+1 reply
Ila-chan wrote on May 30 2015, 12:04 pm

the numbers represent the frets..
for ex. E-----2---3--- it means that you have to play with your finger on the 2nd fret of the E string and so on with the other numbers.. :)

I want to post or [tab]
guest
You may want to rate the tab now too:
select rating
Please do not post tabs as comments. Select "correction" instead!