Oops, an error
Loading. Please wait.

Ah Megamisama - Open Your Mind Tab

516 views 1 this week
no commentswrite comment
1 2 3 4 5
please rate
add to favorites
launch autoscroll
font size
0
reset
how to read this tab
guitar tuner
Autoscroll
slow
fast
+/-
esc
set tempo
stop
Help us to improve Ultimate-Guitar.com Take our survey!
×
Author
Difficulty
novice
     Q    E  Q    S S    E  E  S S E  E  E     E  E.  S E  E  S S
E||-------------------|---------------------|---------------------|
B||-------------------|---------------------|---------------------|
G||-------------------|---------------------|---------1-----------|
D||-------------------|-----2------------2--|--2--4-----2-----2-2-|
A||---------------2-2-|--2-----2-0-0--2-----|---------------------|
E||-------------------|---------------------|---------------------|


  Q    S S Q.        Q.     Q    S S    Q    E  Q    S S    Q    E  Q.
------------------|------------------|-------------------|-----------------|
------------------|------------------|--0----------------|-----------------|
--2----1----------|------------------|-------2--0--------|-----------------|
---------4-2------|--L-----------2-2-|---------------4-2-|--0----2--2------|
------------------|------------------|-------------------|-----------------|
------------------|------------------|-------------------|-----------------|


  Q.     Q    E     Q    E  Q    S S    E  E.  S E  E  E     E  E.  S Q    E
-----------------|-------------------|--------------------|-------------------|
-----------------|-------------------|--------------------|-------------------|
-----------------|-------------------|--------------------|---------1---------|
--L--------------|-------------------|-----2-----------2--|--2--4-----2-------|
-----------------|---------------2-2-|--2------4-0--4-----|-------------------|
-----------------|-------------------|--------------------|-------------------|


  E.  S E  E  S S S S    Q.     Q    E     E  E.  S S S E  E
----------------------|-----------------|---------------------|
--------0--L--2-0-----|-----------------|---------------------|
--1---2-----------2---|-----------------|---------------------|
--------------------4-|--2------2-------|--2--2---2---2-2-----|
----------------------|-----------------|-----------4---------|
----------------------|-----------------|---------------------|


  E  E.  S S S Q       E  E  E  E  E.  S    S S Q    Q.
--------------------|--------------------|------------------|
--------------------|--0-----------------|------------------|
-----------1--------|-----2--1-----------|--1---------------|
--2--2---4---4-2----|-----------4--2---2-|----4-2----2------|
--------------------|--------------------|------------------|
--------------------|--------------------|------------------|


  E  E.  S S S E  E     E  E.  S S S Q       E  E  E  Q.
---------------------|--------------------|------------------|
---------------------|---------0-----0----|--3--1--0---------|
---------------------|-----------1-2------|-----------0------|
--2--2---2---2-2-----|--2--2--------------|------------------|
-----------4---------|--------------------|------------------|
---------------------|--------------------|------------------|


  Q.     E  E  S S    Q    E  Q.        Q    E  S S E  E     Q.     Q    S S
-------------------|-----------------|--------------------|------------------|
---------0---------|-----------------|--------------------|------------------|
--1---------2------|-----------------|--------------1--2--|------------------|
---------------6-2-|--2----4--4------|--4-------2-4-------|--4------2----1-2-|
-------------------|-----------------|--------------------|------------------|
-------------------|-----------------|--------------------|------------------|


  Q.     S S E  E     Q.     Q    E     Q.     E  E  S S    Q    E  E  E  E
-------------------|---------0-------|-------------------|-------------------|
-------------------|--4-----------4--|--0------0---------|-------------------|
-------------1--2--|-----------------|------------2--1---|-------------------|
--2------2-4-------|-----------------|-----------------4-|--2----------2--1--|
-------------------|-----------------|-------------------|----------2--------|
-------------------|-----------------|-------------------|-------------------|


  Q    S S Q.        Q    S S Q.        Q    E  S S E  E     Q    E  Q    S S
------------------|------------------|--------------------|-------------------|
------------------|------------------|--------------------|-------0-----------|
---------1-1------|--2----1----------|--------------1--2--|-------------------|
--2----4----------|---------4-2------|--2-------2-4-------|--4-------2----1-2-|
------------------|------------------|--------------------|-------------------|
------------------|------------------|--------------------|-------------------|


  Q.     S S E  E     Q.     Q    E     Q    S S Q.        E  E  E  Q.
-------------------|---------0-------|------------------|--0-----0---------|
----------------0--|--4-----------4--|--4----2-0-2------|-----4-----0------|
-------------1-----|-----------------|------------------|------------------|
--2------2-4-------|-----------------|------------------|------------------|
-------------------|-----------------|------------------|------------------|
-------------------|-----------------|------------------|------------------|


  E  E  E  E  E  S S    Q.     E  E  S S    E  E  E  Q.        H.
---------------------|-------------------|------------------|---------------|
-----------0---------|-------------------|------------------|---------------|
-----1--2-----2--1---|-------------------|------------------|---------------|
--2----------------4-|--2------2---------|-----2--1--2------|--2------------|
---------------------|---------------2-2-|--2---------------|---------------|
---------------------|-------------------|------------------|---------------|


  H.              H.              Q    E  Q    S S    E  E  S S E  E  E
---------------|---------------|-------------------|---------------------|
---------------|---------------|-------------------|---------------------|
---------------|---------------|-------------------|---------------------|
---------------|---------------|-------------------|-----2------------2--|
---------------|---------------|---------------2-2-|--2-----2-0-0--2-----|
---------------|---------------|-------------------|---------------------|


  E  E.  S E  E  S S    Q    S S Q.        Q.     Q    S S    Q    E  Q    S S
---------------------|------------------|------------------|-------------------|
---------------------|------------------|------------------|--0----------------|
---------1-----------|--2----1----------|------------------|-------2--0--------|
--2--4-----2-----2-2-|---------4-2------|--2-----------2-2-|---------------4-2-|
---------------------|------------------|------------------|-------------------|
---------------------|------------------|------------------|-------------------|


  Q    E  Q.        Q.     Q    E     Q    E  Q    S S    E  E.  S E  E  E
-----------------|-----------------|-------------------|--------------------|
-----------------|-----------------|-------------------|--------------------|
-----------------|-----------------|-------------------|--------------------|
--0----2--2------|--2--------------|-------------------|-----2-----------2--|
-----------------|-----------------|---------------2-2-|--2------2-0--2-----|
-----------------|-----------------|-------------------|--------------------|


  E  E.  S Q    E     E.  S E  E  S S S S    Q.     Q    E
-------------------|----------------------|-----------------|-----||
-------------------|--------0--0--2-0-----|-----------------|-----||
---------1---------|--1---2-----------2-1-|-----------------|-----||
--2--4-----2-------|----------------------|--2------2-------|-----||
-------------------|----------------------|-----------------|-----||
-------------------|----------------------|-----------------|-----||


okey fukers this is at least a part of this beautifull song i learn to read a freaking 
for this so be thanksfull k? in a couple of days i will complete it and post the GP file 
u find errors let me know k? c ya!
PD: im not very sure if it fits with the song but u will get it and remenber that u can 
it one octave higer
Suggest correction
Give kudos to tab author, rate the tab!
1 2 3 4 5
comments
print report bad tab
guest
You may want to rate the tab now too:
select rating
Wanna post a correction for this tab? Suggest correction