Oops, an error
Loading. Please wait.

Android Kikaider - Jiros Guitar Tab

824 views 3 this week
no commentswrite comment
1 2 3 4 5
please rate
add to favorites
launch autoscroll
font size
0
reset
how to read this tab
guitar tuner
Autoscroll
slow
fast
+/-
esc
set tempo
stop
Help us to improve Ultimate-Guitar.com Take our survey!
×
Android Kikaider:Jiro's Guitar
Guitar1
e---1-0--5-1-|--1-0-1-|
b---3-3-3----|--3-3-3-|
g--2-2-2-----|-2-2----|
d-0----------|0-------|
a------------|--------|
E------------|--------|

Guitar2
e-5-3-0-3-1-|5-3-0-8-5-|5-3-0-1---0-1-3-5-|5-3-8-10-5-|
b-----------|----------|-------3-3--------|-----------|
g-----------|----------|------------------|-----------|
d-----------|----------|------------------|-----------|
a-----------|----------|------------------|-----------|
E-----------|----------|------------------|-----------|
Suggest correction
Give kudos to tab author, rate the tab!
1 2 3 4 5
comments
print report bad tab
guest
You may want to rate the tab now too:
select rating
Please do not post tabs as comments. Select "correction" instead!