Oops, an error
Loading. Please wait.

Atomic Betty Theme Tab

450 views 1 this week
no commentswrite comment
1 2 3 4 5
please rate
add to favorites
launch autoscroll
font size
0
reset
how to read this tab
guitar tuner
Tab Pro tools
  • play this tab
  • loop segment
  • change instrument
  • show fretboard
  • metronome
Autoscroll
slow
fast
+/-
esc
set tempo
stop
Contributor
Difficulty
intermediate
----------------------------------------------------------------------------
                             Atomic Betty - Misc. Cartoon
----------------------------------------------------------------------------
Tabbed by: Jacob Rushby
Email:jacob.zaccharry@hotmail.com

Tuning:EADGBe (standard tuning)

Intro
e|----------------------------------------------|
B|---------------------------------5--------5---|
G|-11~--12~--9~-------------------4--7-4h7p4--7-|
D|----------------------------------------------|
A|----------------------------------------------|
E|--------------7-7---7-3-3---3-5---------------|

Riff (00:15)
e|----------------------------------------------------------|
B|-------5------------5------------5------------5-----------|
G|-4-7-4---7-4----7-4---7-4----7-4---7-4----7-4---7-4-------|
D|--------------5-------------------------5-----------------|
A|---------------------------7------------------------------|
E|----------------------------------------------------------|

e|---------------------------------------------|
B|-------5----------5h7p5----------------------|
G|-4-7-4---7-4---7--------7--------------------|
D|-------------5--5-----------7777777777777777-|
A|---------------------------------------------|
E|---------------------------------------------|

Chorus (00:26)
e|----------------------------------------------------------|
B|----------------------------------------------------------|
G|-7-7-7-7-7-7-7-7------------------------------------------|
D|-7-7-7-7-7-7-7-7-5-5-5-5--7-7-7-7-7-7-7-7-7-7-7-7-7-7-7-7-|
A|-5-5-5-5-5-5-5-5-5-5-5-5--7-7-7-7-7-7-7-7-7-7-7-7-7-7-7-7-|
E|-----------------3-3-3-3--5-5-5-5-5-5-5-5-5-5-5-5-5-5-5-5-|

e|----------------------------------------------------------|
B|----------------------------------------------------------|
G|-7-7-7-7-7-7-7-7------------------------------------------|
D|-7-7-7-7-7-7-7-7-5-5-5-5--7-7-7-7-7-7-7-7-7-7-7-7-x-x-x-x-|
A|-5-5-5-5-5-5-5-5-5-5-5-5--7-7-7-7-7-7-7-7-7-7-7-7-x-x-x-x-|
E|-----------------3-3-3-3--5-5-5-5-5-5-5-5-5-5-5-5-x-x-x-x-|

Riff 2 (00:43)
e|----------------------------------------------------------|
B|-------5------------5------------5------------5-----------|
G|-4-7-4---7-4----7-4---7-4----7-4---7-4----7-4---7-4-------|
D|--------------5-------------------------5-----------------|
A|---------------------------7------------------------------|
E|----------------------------------------------------------|

e|---------------------------------------------|
B|-------5----------5h7p5----------------------|
G|-4-7-4---7-4---7--------7--------------------|
D|-------------5--5-----------7777777777777777-|
A|---------------------------------------------|
E|---------------------------------------------|

Chorus 2 (00:54)
e|----------------------------------------------------------|
B|----------------------------------------------------------|
G|-7-7-7-7-7-7-7-7------------------------------------------|
D|-7-7-7-7-7-7-7-7-5-5-5-5--7-7-7-7-7-7-7-7-7-7-7-7-7-7-7-7-|
A|-5-5-5-5-5-5-5-5-5-5-5-5--7-7-7-7-7-7-7-7-7-7-7-7-7-7-7-7-|
E|-----------------3-3-3-3--5-5-5-5-5-5-5-5-5-5-5-5-5-5-5-5-|

e|----------------------------------------------------------|
B|----------------------------------------------------------|
G|-7-7-7-7-7-7-7-7------------------------------------------|
D|-7-7-7-7-7-7-7-7-5-5-5-5--7-7-7-7-7-7-7-7-7-7-7-7-7-7-7-7-|
A|-5-5-5-5-5-5-5-5-5-5-5-5--7-7-7-7-7-7-7-7-7-7-7-7-7-7-7-7-|
E|-----------------3-3-3-3--5-5-5-5-5-5-5-5-5-5-5-5-7-7-7-7-|

Bridge(1:09)
e|----------------------------------------------------------|
B|----------------------------------------------------------|
G|-7\-------------------------------------------------------|
D|-7\------------------------------------------------\\\\\\-|
A|-5\------------------------------------------------\\\\\\-|
E|-----7\3-3-33-3-5-55-5-0-00-0-7-77-7-3-33-3-5-55~--\\\\\\-|
    pm|    . .. . . .. . . .. . . .. . . .. . .       ^pick slide

Chorus 3 (1:22)
e|----------------------------------------------------------|
B|----------------------------------------------------------|
G|-7-7-7-7-7-7-7-7------------------------------------------|
D|-7-7-7-7-7-7-7-7-5-5-5-5--7-7-7-7-7-7-7-7-7-7-7-7-7-7-7-7-|
A|-5-5-5-5-5-5-5-5-5-5-5-5--7-7-7-7-7-7-7-7-7-7-7-7-7-7-7-7-|
E|-----------------3-3-3-3--5-5-5-5-5-5-5-5-5-5-5-5-5-5-5-5-|

e|----------------------------------------------------------|
B|----------------------------------------------------------|
G|-7-7-7-7-7-7-7-7----------------------------------------7\|
D|-7-7-7-7-7-7-7-7-5-5-5-5--7-7-7-7-7-7-7-7-7-7-7-7-7-7-7-7\|
A|-5-5-5-5-5-5-5-5-5-5-5-5--7-7-7-7-7-7-7-7-7-7-7-7-7-7-7-5\|
E|-----------------3-3-3-3--5-5-5-5-5-5-5-5-5-5-5-5-7-7-7---|

Outro(1:39)
 (call me up) (I'm ur girl)     Hit each string on the words
e|--v----v--v-----v--v---v----------------------------------|
B|--7----7--7-----8--8---8----------------------------------|
G|----------------------------------------------------------|
D|----------------------------------------------------------|
A|----------------------------------------------------------|
E|----------------------------------------------------------|
  (toughest chick in the A-li-en  world)                     
e|--v---v-----v----v--v--v-v--v----v------------------------|
B|--v---v-----v----v--v--7-v--v----v------------------------|
G|--9---9-----9----9--9----9--7----v------------------------|
D|---------------------------------9------------------------|
A|----------------------------------------------------------|
E|----------------------------------------------------------|

 (call me up) (I'm ur girl)     Hit each string on the words
e|--v----v--v-----v--v---v----------------------------------|
B|--7----7--7-----8--8---8----------------------------------|
G|----------------------------------------------------------|
D|----------------------------------------------------------|
A|----------------------------------------------------------|
E|----------------------------------------------------------|
  (toughest chick in the A-li-en  world)                     
e|--v---v-----v----v--v--v-v--v----v------------------------|
B|--v---v-----v----v--v--7-v--v----v------------------------|
G|--9---9-----9----9--9----9--7----v------------------------|
D|---------------------------------9------------------------|
A|----------------------------------------------------------|
E|----------------------------------------------------------|

 (call me up) (I'm ur girl)     Hit each string on the words
e|--v----v--v-----v--v---v----------------------------------|
B|--7----7--7-----8--8---8----------------------------------|
G|----------------------------------------------------------|
D|----------------------------------------------------------|
A|----------------------------------------------------------|
E|----------------------------------------------------------|
  (toughest chick in the A-li-en  world)                     
e|--v---v-----v----v--v--v-v--v----v------------------------|
B|--v---v-----v----v--v--7-v--v----v------------------------|
G|--9---9-----9----9--9----9--7----v------------------------|
D|---------------------------------9------------------------|
A|----------------------------------------------------------|
E|----------------------------------------------------------|

 (call me up) (I'm ur girl)     Hit each string on the words
e|--v----v--v-----v--v---v----------------------------------|
B|--7----7--7-----8--8---8----------------------------------|
G|---------------------------7p6----------------------------|
D|-------------------------------8--------------------------|
A|----------------------------------------------------------|
E|----------------------------------------------------------|
The end
This is for you sutherly :)
comments
We did not receive enough feedback on this tab! Please rate:
print report bad tab
1 2 3 4 5
I want to post or [tab]
guest
You may want to rate the tab now too:
select rating
Please do not post tabs as comments. Select "correction" instead!