Oops, an error
Loading. Please wait.

Attack On Titan Theme Song - Shingeki No Kyojin Tab

78,271 views 1,074 this week
13 commentsread comments
1 2 3 4 5
x 28
add to favorites
launch autoscroll
font size
0
reset
how to read this tab
guitar tuner
Autoscroll
slow
fast
+/-
esc
set tempo
stop
Author
Difficulty
intermediate
[INTRO]

E -------------------------------------------------------------------------|
B -------------------------------------------------------------------------|
G --------9-8-----------9-8------------------------------------------------|
D --11-11-----9---11-11-----9----------------------------------------------|
A -------------------------------------------------------------------------|
E -------------------------------------------------------------------------|

E -------------------------------------------------------------------------|
B -------------------------------------------------------------------------|
G --13-----11---------------------13----11---------------------------------|
D -----14-----13-14-11-13-9----------14----13-14-13-11-9-------------------|
A -------------------------------------------------------------------------|
E -------------------------------------------------------------------------|

E -------------------------------------------------------------------------|
B -------------------------------------------------------------------------|
G --16----14-----------------16----14--------------------------------------|
D -----17----16-17-14-16-12-----17----16-17-14-13--------------------------|
A -------------------------------------------------------------------------|
E -------------------------------------------------------------------------|

[VERSE]

E -------------------------------------------------------------------------|
B -------------------------------------------------------------------------|
G --8---6--------------8---6-----------------------------------------------|
D ----9---8-9-6-8-4------9---8-9-8-6-5-------------------------------------| x7
A -------------------------------------------------------------------------|
E -------------------------------------------------------------------------|

E -------------------------------------------------------------------------|
B -------------------------------------------------------------------------|
G --8---6--------------8---6------------15-15-15---------------------------|
D ----9---8-9-6-8-4------9---8-9-8-----------------------------------------|
A -------------------------------------------------------------------------|
E -------------------------------------------------------------------------|

[PRE-CHORUS]

E -------------------------------------------------------------------------|
B -------------------------------------------------------------------------|
G -------------------------------------------------------------------------|
D --6---6---6---8-9-8-6-5------6---8---9---10---11-------------------------|
A -------------------------------------------------------------------------|
E -------------------------------------------------------------------------|

E -------------------------------------------------------------------------|
B -------------------------------------------------------------------------|
G -------------------------------------------------------------------------|
D --11-11----11----11-10p9-------11-11----11----11-11---10-----------------|
A --------11----11---------9-9---------12----12----------------------------|
E -------------------------------------------------------------------------|

[CHORUS]

E -------------------------------------------------------------------------|
B -------------------------------------------------------------------------|
G -----9-8-------------9-8----------9-8---------9-9-8-8-9-8----------------|
D --11-----9-----11-11-----9-----11-----9-11-------------------------------|
A -------------------------------------------------------------------------|
E -------------------------------------------------------------------------|

E -------------------------------------------------------------------------|
B -------------------------------------------------------------------------|
G -----9-8-------------9-8----------9-8---------11-13--11-8----------------|
D --11-----9-----11-11-----9-----11-----9-11-------------------------------|
A -------------------------------------------------------------------------|
E -------------------------------------------------------------------------|

E -------------------------------------------------------------------------|
B -------------------------------------------------------------------------|
G -----9-8-------------9-8----------9-8------------------------------------|
D --11-----9-----11-11-----9-----11-----9---11-9----9----------------------|
A -----------------------------------------------11------------------------|
E -------------------------------------------------------------------------|

E -------------------------------------------------------------------------|
B -------------------------------------------------------------------------|
G -----9-8-------------9-8----------9-8------------------------------------|
D --11-----9-----11-11-----9-----11-----11-9-------------------------------|
A -----------------------------------------------11------------------------|
E -------------------------------------------------------------------------|

[OUTRO]

E -------------------------------------------------------------------------|
B -------------------------------------------------------------------------|
G --13----11-----------------13----11--------------------------------------|
D -----14----13-14-11-13-9------14----13-14-13-11-9------------------------|
A -------------------------------------------------------------------------|
E -------------------------------------------------------------------------|

E -------------------------------------------------------------------------|
B -------------------------------------------------------------------------|
G --16----14------------------16----14-------------------------------------|
D -----17----16-17-14-16-12------17----16-17-14-13-------------------------| X2
A -------------------------------------------------------------------------|
E -------------------------------------------------------------------------|

E -------------------------------------------------------------------------|
B -------------------------------------------------------------------------|
G --19----17------------------19----17-------------------------------------|
D -----20----19-20-17-19-15------20----19-20-19-17-16----------------------|
A -------------------------------------------------------------------------|
E -------------------------------------------------------------------------|
Suggest correction
comments
print report bad tab
13 comments total. Showing first comments.
0 reply
nickhartey 10 Mar 20, 2015 02:54 PM

great tab finally i found one that i can play

0 reply
itsukashidosuaz 10 May 18, 2015 03:44 AM

Sugoi Sugoi !! Thnx for the Tab man :D :)) !

0 reply
david.cole.black 10 Jun 05, 2015 11:04 AM

second half of the last line of the intro should read:
---16----14-----------------------------------------------------
------17----16-17-16-14-13--------------------------------------

guest
You may want to rate the tab now too:
select rating
Wanna post a correction for this tab? Suggest correction