Oops, an error
Loading. Please wait.

Avatar The Last Airbender - Little Soldier Boy Tab

version 1
version 1

Whole song

42,674 views 39 this week
4 commentsread comments
1 2 3 4 5
x 25
add to favorites
×
Save as Personal and add changes to this tab that will be seen only by you. Learn more ›
×
You can save this tab as Personal to edit and correct it or add notes. All changes will be seen only by you. Learn more »
save as personal
new!
launch autoscroll
font size
0
reset
how to read this tab
guitar tuner
Autoscroll
slow
fast
+/-
esc
set tempo
stop
Author
Leaves from the vine   Falling so slow
e|----------------------------------------------------------------------------|
B|--2-/-5---5----5--/-2---0--2-/-5---5----5-/-2-----2-/-5---5-/-2-----2-------|
G|----------------------------------------------------------------------------|
D|----------------------------------------------------------------------------|
A|--0---------0--------------------0---0----------0-------0---------0---0-----|
E|----------------------------------------------------------------------------|

    Like fragile tiny shells   Drifting in the foam
e|------------------------------------------------------|
B|----2----2----2--0-----------2----2--0----------------|
G|--------------------2-----2-------------2----2--------|
D|----0------------------------0------------------------|
A|------------------------------------------------------|
E|------------------------------------------------------|

    Little soldier boy       Come marching home
e|---------------------------------------------------|
B|--2-/-5---5----5-/-2---0---2-/-5--5-/-2-----2------|
G|---------------------------------------------------|
D|---------------------------------------------------|
A|--0---------0------------0----------------0---0----|
E|---------------------------------------------------|

    Brave soldier boy                  Comes marching home
e|-------------------------------------------------------------|
B|--2---2---2--------------------------------------------------|
G|-----------------2-----------2-----2-------------0/2---------|
D|--0-----------4-----4--2--4-----4-----4--2--4----------------|
A|-------------------------------------------------------------|
E|-------------------------------------------------------------|

e|-----------------------------------------------|
B|--5----5--3-----------------5--5--3------------|
G|-------------4/6---------------------4/6-------|
D|-----------------------------------------------|
A|--0-------------------------0------------------|
E|-----------------------------------------------|
                                                      
e|-----------------------------------------|-----------|
B|-----------------------------------------|-----------|
G|--6----6-/7-/6-/4--2-------/6--6--4--2---|-----------|
D|-----------------------------------------|-----------|
A|-----------------------------------------|-----0-----|
E|-----------------------------------------|-----------|

    Leaves from   Falling    Like fragile   Drifting in
     the vine      so slow    tiny shells    the foam
e|------------------------------------------------------|
B|-------------------5----------------------------------|
G|--------------------------------6---------------------|
D|-------------------2----------------------------------|
A|--------------------------------4---------------------|
E|------------------------------------------------------|

    Little sol-  Come mar-    Brave sol-  Comes mar-
     dier boy     ching home   dier boy    ching home
e|------------------------------------------------------|
B|-----5--------------------------7------9--------------|
G|------------------------------------------------------|
D|-----2--------------------------4------6--------------|
A|------------------------------------------------------|
E|------------------------------------------------------|


************************************

| /  Slide up

************************************
Suggest correction
comments
print report bad tab
4 comments total. Showing first comments.
+1 reply
Rictus23 20 Jun 18, 2009 12:10 AM

thank you so much for posting this. i love the show and this song especially. it's the only song that makes me cry. Iroh is one of my favorite characters. i applaud the voice actor for his emotion, and the musician who wrote the song. so sad

+3 reply
xXxA7X~Fan07xXx 61 Apr 08, 2011 02:09 PM

Nice tab. This part of the episode makes me cry every time. x.x The other funny moments afterward makes up for it though. :D Is this how the song is played or did you just add some extra parts? I think there is only like 4 guitar lines in the whole song like if you just play the main parts. Could be wrong though. I have all 3 seasons on dvd but I didn't bother getting the live action movie because it failed. .-. I thought so anyway.

0 reply
nippleassassi 10 Feb 03, 2017 02:16 PM

Such an emotional song, hard to capture with a tab. But you nailed it! A+

guest
You may want to rate the tab now too:
select rating
Wanna post a correction for this tab? Suggest correction