Oops, an error
Loading. Please wait.

Avatar The Last Airbender - Safe Return Tab

34 views 6 this week
no commentswrite comment
1 2 3 4 5
2 more votes to show rating
add to favorites
launch autoscroll
font size
0
reset
how to read this tab
guitar tuner
Autoscroll
slow
fast
+/-
esc
set tempo
stop
Help us to improve Ultimate-Guitar.com Take our survey!
×
Author
Difficulty
Capo
novice
4th fret
Standard tuning
Capo 4 

[INTRO]
E|-------------|-------------|
B|----------3--|-----------4-|
G|-----0----3--|------1----5-|
D|--1----------|-3-----------|
A|-------------|-------------|
E|-------------|-------------|

[PART]
E|--3--2--------|--3--2--------|
B|--0-----3--0--|--------3--0--|
G|--0-----------|--------------|  x2
D|--0-----------|--------------|
A|--------------|--------------|
E|--------------|--------------|

[OTHER PART]
E|-----------------------------|-----------------------------|
B|--1--0--1-----1--0--1--------|--1--0--1-----1--0--1--------|
G|--0--------0-----------0-----|-----------0-----------0-----|
D|--2-----------------------2--|--------------------------2--|
A|--3--------------------------|-----------------------------|
E|-----------------------------|-----------------------------|
Suggest correction
Give kudos to tab author, rate the tab!
1 2 3 4 5
comments
print report bad tab
guest
You may want to rate the tab now too:
select rating
Wanna post a correction for this tab? Suggest correction