Oops, an error
Loading. Please wait.

Batman Theme Bass Tab

version 1
version 1

Whole song

Interactive

2,720 views 6 this week
1 commentread comment
1 2 3 4 5
worth learning
x 6
add to favorites
launch autoscroll
font size
0
reset
guitar tuner
Autoscroll
slow
fast
+/-
esc
set tempo
stop
Help us to improve Ultimate-Guitar.com Take our survey!
×
Author
Difficulty
intermediate
The batman theme on bass.

Sup guys. my name is mahomy, aka Mahomy1000 on YouTube. 
the tab is 100% correct. standard  tuning.


G|------------------------|
D|------------------------|
A|------------------------|  x4
E|---5-5--4-4--3-3--4-4---|

G|------------------------|
D|------------------------|
A|---5-5--4-4--3-3--4-4---|  x2
E|------------------------|

G|------------------------|
D|------------------------|
A|------------------------|  x2
E|---5-5--4-4--3-3--4-4---|

G|------------------------|
D|------------------------|
A|---7-7--6-6--5-5--6-6---|  
E|------------------------|

G|------------------------|
D|------------------------|
A|---5-5--4-4--3-3--4-4---|  
E|------------------------|

G|------------------------|
D|------------------------|
A|------------------------|  x2
E|---5-5--4-4--3-3--4-4---|
Suggest correction
What's this?
You can suggest a correction to this tab. Community and Mods will review your correction and vote to approve or reject it.
comments
print report bad tab
1 comment total.
0 reply
elreybakano02 13 wrote on June 23 2016, 08:20 pm, edited at 08:21 pm

Very very very very go-od~
Very very very very go-od~
Very very very very go-od~
Very very very very go-od~
VERY VERY VERY VERY GO-OD~
VERY VERY VERY VERY GO-OD~
Very very very very go-od~
Very very very very go-od~
VERY VERY VERY VERY GO-OD~
VEEEERY VEEEERY VEEEERY VEEEERY GOOOD~
Very very very very go-od~
Very very very very go-od~

guest
You may want to rate the tab now too:
select rating
Please do not post tabs as comments. Select "correction" instead!