Oops, an error
Loading. Please wait.

Beck - Moon On The Water Tab

version 1
version 1

Whole song

Interactive

105,328 views 69 this week
2 commentsread comments
1 2 3 4 5
excellent!
x 11
add to favorites
launch autoscroll
font size
0
reset
how to read this tab
guitar tuner
Autoscroll
slow
fast
+/-
esc
set tempo
stop
Help us to improve Ultimate-Guitar.com Take our survey!
×
Author
Beck...
Anime Singers: Kyouki and Maho
Live Singers: Sowelu

Verse:
(brush chords)
     E                          Asus2
|--0-----0--------------------0--------------|
|--0-------0------------------0-----0--------|
|--1---------3----------------2--------------|
|--2--------------------------2---2---2-1----|
|--2---2----------------------0--------------|
|--0--------------------------0--------------|

   C#m        B           Asus2 
|------0------------0-------------0----------|
|------0------------0---------------0--------|
|------4------------4-----------------2------|
|----2------------2-------------2------------|
|--4------------2-------------0--------------|
|--------------------------------------------|


Chorus:

        C#m     Asus2      E        B
|--------4--------0--------0--------2--------|
|--------5--------0--------0--------4--------|
|--------6--------2--------1--------4--------|
|--------6--------2--------2--------4--------|
|--------4--------0--------2--------2--------|
|--------------------------0-----------------|

       F#m7              Asus2
|--------------------------0-----------------|
|--------2-----------------0-----------------|
|--------2-----------------2-----------------|
|--------2-----------------2-----------------|
|--------4-----------------0-----------------|
|--------2-----------------------------------|
Suggest correction
What's this?
You can suggest a correction to this tab. Community and Mods will review your correction and vote to approve or reject it.
comments
print report bad tab
2 comments total.
0 reply
JustinNguyen 143 wrote on November 28 2006, 12:23 am

note: change chords part...

F#m --2--
--4--
--4--
--2--
--2--
-(2)-

0 reply
Cmay200k 22 wrote on November 2 2010, 06:13 pm

Dude i love it....the best version.

guest
You may want to rate the tab now too:
select rating
Please do not post tabs as comments. Select "correction" instead!