Oops, an error
Loading. Please wait.

Beck - Moon On The Water Tab

version 3
version 3

Whole song

Interactive

10,594 views 6 this week
1 commentread comment
1 2 3 4 5
x 4
add to favorites
launch autoscroll
font size
0
reset
how to read this tab
guitar tuner
Autoscroll
slow
fast
+/-
esc
set tempo
stop
Help us to improve Ultimate-Guitar.com Take our survey!
×
Author
Difficulty
Capo
novice
1st fret
"Moon on the water" performed by Sowelu

(anime "BECK")

tab written by dani_gr87
=====================================================
capo 1 (for Sowelu's version ; Beat Crusaders -> capo 2 )

[intro]

   D              G              Bm       Asus2      G
|--2-----------|--3----------|------2-------0----------------|
|--3---3-------|--3---3------|------3-------3-------3--------|
|--2-----2-1---|--0-0--------|------4-------2---------2-0----|
|--0-0---------|--0-----0----|----4-4-----2-2-----0----------|
|--0-----------|--2-------4--|--2---2---0---0----------------|
|--0-----------|--3----------|------------------3------------|

[verse1] (= intro)

D              G
Full moon sways
Bm                Asus2              G
Gently in the night of one fine day

D         G
On my way
Bm          Asus2               G
Looking for a moment with my dear

D              G
Full moon waves
Bm            Asus2             G
Slowly on the surface of the lake

D              G
You were there
Bm              Asus2             G
Smiling in my arms for all those years


[chorus]
          Bm
What a fool
     G                D
I don't know 'bout tomorrow
Asus2               G
What it's like to be
G
Haa...

          Bm
I was fool
         G              D
Couldn't let myself to go
Asus2              Em
Even though I feel
G
The end

[verse2] 
(= verse1 -> D    G    Bm Asus2 G)

Old love affair
Floating like a bird resting her wings

You were there
Smiling in my arms for all those years


[chorus]

/ Bm G D Asus2 G  G \ 
\ Bm G D Asus2 Em G / 

What a fool
I don't know 'bout tomorrow
What it's like to be
Haa...

I was fool
Couldn't let myself to go
Even though I feel
The end

[solo]

guitar  |--2-3-5-----5--3--|--2-3-10-------2^3^2----------------|
        |--3------------3--|--3------------3--------2^4-2-4-----|
        |--2------------0--|--2------------2--------------------|
        |--0------------0--|--0------------0--------------------|
        |--0------------2--|--0------------0--------------------|
        |--0------------3--|--0------------0--------------------|

guitar     D            G         Bm Asus2 G         G


[Ending] (= intro)

Full moon sways
Gently in the night of one fine day

You were there
Smiling in my arms for all those years

           G
     ---------------|-3-----------|
     ------3--------|-3--------3--|
     --------2-0----|-0----2-0----|
 ... ----0----------|-0--0--------|
     ---------------|-2-----------|
     --3------------|-3-3---------|

=======================================================

Suggest correction
comments
print report bad tab
1 comment total.
0 reply
yéti 20 May 06, 2009 02:55 AM

it's not the good chords

guest
You may want to rate the tab now too:
select rating
Wanna post a correction for this tab? Suggest correction