Oops, an error
Loading. Please wait.

Beyblade Theme Bass Tab

version 1
version 1

Whole song

Interactive

1,649 views 1 this week
no commentswrite comment
1 2 3 4 5
please rate
add to favorites
launch autoscroll
font size
0
reset
guitar tuner
Tab Pro tools
  • play this tab
  • loop segment
  • change instrument
  • show fretboard
  • metronome
×
Best way to learn
"Beyblade Theme"
Autoscroll
slow
fast
+/-
esc
set tempo
stop
Contributor
-------------------------------------------------------------------------------
			     Beyblade Opening Theme
-------------------------------------------------------------------------------

Tabbed By : Cullie
e-mail: cullie@hotmail.co.uk

Tuning: Standard E A D G


     S  S E  S  S E  S E  E  E  S    S  S E  S  S E  S E  E  E  S  
G||-------------------------------|--------------------4--4--4--4-|
D||-------------------------------|-------------------------------|
A||--------------------4--4--4--4-|--1h-2-2--1h-2-2--2------------|
E||--1h-2-2--1h-2-2--2------------|-------------------------------|


  S  S E  S  S E  S E  E  E  S    S  S E  S  S E  S E  E  E  S  
-------------------------------|--------------------4--4--4--4-|
-------------------------------|-------------------------------|
--------------------4--4--4--4-|--1h-2-2--1h-2-2--2------------|
--1h-2-2--1h-2-2--2------------|-------------------------------|


  S S S S S S E  H           S S E  S S E  S S E  S S E   
--------------------------|------------------------------|
--------------------------|------------------------------|
--------------------------|------------------------------|
--4-4---6-6---7--L--------|--2-2-2--2-2-2--2-2-2--2-2-2--|


  S S E  S S E  S S E  S S E     S S E  S S E  S S E  S S E   
------------------------------|------------------------------|
------------------------------|------------------------------|
--2-2-2--2-2-2--2-2-2--2-2-2--|------------------------------|
------------------------------|--2-2-2--2-2-2--2-2-2--2-2-2--|


  S S E  S S E  S S E  S S E     E.  E.  E  H         
------------------------------|----------------------|
------------------------------|----------------------|
--2-2-2--2-2-2--2-2-2--2-2-2--|--6---4---2--L--------|
------------------------------|----------------------|


  S  S E  S  S E  S E  E  E  S    S  S E  S  S E  S E  E  E  S  
-------------------------------|--------------------4--4--4--4-|
-------------------------------|-------------------------------|
--------------------4--4--4--4-|--1h-2-2--1h-2-2--2------------|
--1h-2-2--1h-2-2--2------------|-------------------------------|


  S S E  S S E  S S E  S S E     S S E  S S E  S S E  S S E   
------------------------------|------------------------------|
------------------------------|------------------------------|
------------------------------|--2-2-2--2-2-2--2-2-2--2-2-2--|
--2-2-2--2-2-2--2-2-2--2-2-2--|------------------------------|


  S S E  S S E  S S E  S S E     S S E  S S E  S S E  S S E   
------------------------------|------------------------------|
------------------------------|------------------------------|
------------------------------|--4-4-4--4-4-4--4-4-4--4-4-4--|
--4-4-4--4-4-4--4-4-4--4-4-4--|------------------------------|


  E.  E.  E  H           E.  E.  E  H           E.  E.  E  H                 
----------------------|----------------------|----------------------|-------|
----------------------|----------------------|----------------------|-------|
--6---4---2--L--------|--6---4---2--L--------|----------------------|-------|
----------------------|----------------------|--4---6---7--L--------|-------|


          E  E  S E  E  E  S E  E     E  E  S E  E  E  S E  E   
-------|---------------------------|---------------------------|
-------|---------------------------|---------------------------|
-------|---------------------------|---------------------------|
-------|--2--2--2-5--7--7--5-7--5--|--2--2--2-5--7--7--5-7--5--|


  Q    Q.     E  Q      
----------------------||
----------------------||
----------------------||
--2-----------2-------||




Duration Legend
---------------
W - whole
H - half
Q - quarter
E - 8th
S - 16th
T - 32nd
X - 64th
. - note dotted
|-n-|  - n-tuplets

Tab Legend
---------------
| /  slide up
| \  slide down
| h  hammer-on
| p  pull-off
| ~  vibrato
| +  harmonic
| x  Mute note
comments
We did not receive enough feedback on this tab! Please rate:
print report bad tab
1 2 3 4 5
I want to post or [tab]
guest
You may want to rate the tab now too:
select rating
Please do not post tabs as comments. Select "correction" instead!