Oops, an error
Loading. Please wait.

Beyblade Theme Tab

version 1
version 1

Whole song

Interactive

4,535 views 3 this week
no commentswrite comment
1 2 3 4 5
please rate
add to favorites
launch autoscroll
font size
0
reset
how to read this tab
guitar tuner
Autoscroll
slow
fast
+/-
esc
set tempo
stop
Help us to improve Ultimate-Guitar.com Take our survey!
×
Author
-------------------------------------------------------------------------------
                             Beyblade Opening Theme
-------------------------------------------------------------------------------
Tabbed by: Cullie
Email: cullie@hotmail.co.uk

Tuning: Standard E A D G B E

The request for this was a 'chords' request. It's not really the type of track 
you can write chords along to.


     S S E  S S E  S E  E  E  S    S S E  S S E  S E  E  E  S  
E||----------------x-9--9--9--9-|----------------x-7--7--7--7-|
B||----------------x-9--9--9--9-|----------------x-7--7--7--7-|
G||-----------------------------|--3-4-4--3-4-4---------------|
D||--3-4-4--3-4-4---------------|--3-4-4--3-4-4---------------|
A||--3-4-4--3-4-4---------------|--1-2-2--1-2-2---------------|
E||--1-2-2--1-2-2---------------|-----------------------------|


  S S E  S S E  S E  E  E  S    S S E  S S E  S E  E  E  S  
----------------x-9--9--9--9-|----------------x-7--7--7--7-|
----------------x-9--9--9--9-|----------------x-7--7--7--7-|
-----------------------------|--3-4-4--3-4-4---------------|
--3-4-4--3-4-4---------------|--3-4-4--3-4-4---------------|
--3-4-4--3-4-4---------------|--1-2-2--1-2-2---------------|
--1-2-2--1-2-2---------------|-----------------------------|


  S S S S S S E  H           S S E  S S E  S S E  S S E   
--------------------------|------------------------------|
--------------------------|------------------------------|
--------------------------|------------------------------|
--6-6---8-8---9--L--------|--x-x-4--x-x-4--x-x-4--x-x-4--|
--6-6---8-8---9--L--------|--x-x-4--x-x-4--x-x-4--x-x-4--|
--4-4---6-6---7--L--------|--x-x-2--x-x-2--x-x-2--x-x-2--|


  S S E  S S E  S S E  S S E     S S E  S S E  S S E  S S E   
------------------------------|------------------------------|
------------------------------|------------------------------|
--x-x-4--x-x-4--x-x-4--x-x-4--|------------------------------|
--x-x-4--x-x-4--x-x-4--x-x-4--|--x-x-4--x-x-4--x-x-4--x-x-4--|
--x-x-2--x-x-2--x-x-2--x-x-2--|--x-x-4--x-x-4--x-x-4--x-x-4--|
------------------------------|--x-x-2--x-x-2--x-x-2--x-x-2--|


  S S E  S S E  S S E  S S E     E  S E  S S S H         
------------------------------|-------------------------|
------------------------------|-------------------------|
--x-x-4--x-x-4--x-x-4--x-x-4--|--8--x-6--x-4-L-L--------|
--x-x-4--x-x-4--x-x-4--x-x-4--|--8--x-6--x-4-L-L--------|
--x-x-2--x-x-2--x-x-2--x-x-2--|--6--x-4--x-2-L-L--------|
------------------------------|-------------------------|


  S S E  S S E  S E  E  E  S    S S E  S S E  S E  E  E  S  
----------------x-9--9--9--9-|----------------x-7--7--7--7-|
----------------x-9--9--9--9-|----------------x-7--7--7--7-|
-----------------------------|--3-4-4--3-4-4---------------|
--3-4-4--3-4-4---------------|--3-4-4--3-4-4---------------|
--3-4-4--3-4-4---------------|--1-2-2--1-2-2---------------|
--1-2-2--1-2-2---------------|-----------------------------|


  S S E  S S E  S S E  S S E     S S E  S S E  S S E  S S E   
------------------------------|------------------------------|
------------------------------|------------------------------|
------------------------------|--x-x-4--x-x-4--x-x-4--x-x-4--|
--x-x-4--x-x-4--x-x-4--x-x-4--|--x-x-4--x-x-4--x-x-4--x-x-4--|
--x-x-4--x-x-4--x-x-4--x-x-4--|--x-x-2--x-x-2--x-x-2--x-x-2--|
--x-x-2--x-x-2--x-x-2--x-x-2--|------------------------------|


  S S E  S S E  S S E  S S E     S S E  S S E  S S E  S S E   
------------------------------|------------------------------|
------------------------------|------------------------------|
------------------------------|--x-x-6--x-x-6--x-x-6--x-x-6--|
--x-x-6--x-x-6--x-x-6--x-x-6--|--x-x-6--x-x-6--x-x-6--x-x-6--|
--x-x-6--x-x-6--x-x-6--x-x-6--|--x-x-4--x-x-4--x-x-4--x-x-4--|
--x-x-4--x-x-4--x-x-4--x-x-4--|------------------------------|


  E  S E  S S S H           E  S E  S S S H           E  S E  S E  H         
-------------------------|-------------------------|------------------------|
-------------------------|-------------------------|------------------------|
--8--x-6--x-4-L-L--------|--8--x-6--x-4-L-L--------|-----x----x-------------|
--8--x-6--x-4-L-L--------|--8--x-6--x-4-L-L--------|--6--x-8--x-9--L--------|
--6--x-4--x-2-L-L--------|--6--x-4--x-2-L-L--------|--6--x-8--x-9--L--------|
-------------------------|-------------------------|--4--x-6--x-7--L--------|


  S S E.   E  E  E  S E  E     S S E.   E  E  E  S E  E   
--------------7-------------|--------------7-------------|
--7---7---10-----7----------|--7---7---10-----7----------|
----------------------------|----------------------------|
--------------------7-9--7--|--------------------7-9--7--|
----------------------------|----------------------------|
----------------------------|----------------------------|


  S S E.  E  E  E  S E  E     S S E.  E  E  E  S E  E     Q    Q.   E    Q   
---------------------------|---------------------------|--------------------||
---------------------------|---------------------------|--------------------||
---------------------------|---------------------------|--------------------||
--4---4---7--9--9--7-9--7--|--4---4---7--9--9--7-9--7--|--4---------4-------||
--4---4---7--9--9--7-9--7--|--4---4---7--9--9--7-9--7--|--4---------4-------||
--2---2---5--7--7--5-7--5--|--2---2---5--7--7--5-7--5--|--2---------2-------||




Duration Legend
---------------
W - whole
H - half
Q - quarter
E - 8th
S - 16th
T - 32nd
X - 64th
. - note dotted
|-n-|  - n-tuplets

Tab Legend
---------------
| /  slide up
| \  slide down
| h  hammer-on
| p  pull-off
| ~  vibrato
| +  harmonic
| x  Mute note

Suggest correction
Give kudos to tab author, rate the tab!
1 2 3 4 5
comments
print report bad tab
guest
You may want to rate the tab now too:
select rating
Wanna post a correction for this tab? Suggest correction