Oops, an error
Loading. Please wait.

Beyblade Theme Bass Tab

version 2
version 2

Whole song

Interactive

343 views 1 this week
no commentswrite comment
1 2 3 4 5
please rate
add to favorites
launch autoscroll
font size
0
reset
guitar tuner
Autoscroll
slow
fast
+/-
esc
set tempo
stop
Help us to improve Ultimate-Guitar.com Take our survey!
×
Author
Difficulty
novice
Intro.

E|-1h2-2-2-1h2-2-2--------------------------------------------4-4-5-5-7-|
A|----------------------------1h2-2-2-1h2-2-2---------------------------|
D|---------------------------------------------4-4-4-4-4-4-4------------|
G|------------------1-1-1-1-1-------------------------------------------|

Verse 1
E|222-222-222-222-777-777-777-777-222-222-222-222-777-777-777-777-|
A|----------------------------------------------------------------|
D|----------------------------------------------------------------|
G|----------------------------------------------------------------|

Chorus.
E|----------------4-6-7-|
A|6-4-2--6-4-2----------|
D|----------------------|
G|----------------------|

Verse 2
E|222-222-222-222-777-777-777-777---------------------------------|
A|--------------------------------444-444-444-444-999-999-999-999-|
D|----------------------------------------------------------------|
G|----------------------------------------------------------------|

Chorus.
E|----------------4-6-7-|
A|6-4-2--6-4-2----------|
D|----------------------|
G|----------------------|

Bridge.(timing may be out of sync, not too hard to figure it out tho.)
E|22-2-222222-22-2222222-|
A|-----------------------|
D|-----------------------|
G|-----------------------|

End.

This is my 1st tab, probly will be my only tab coz i figured it out myself, if you have 
any difficulty ill have a video up soon wich will help or just ask me?
Thanks a heap guys for viewing this
LET IT RIP!
Suggest correction
Give kudos to tab author, rate the tab!
1 2 3 4 5
comments
print report bad tab
guest
You may want to rate the tab now too:
select rating
Wanna post a correction for this tab? Suggest correction