Oops, an error
Loading. Please wait.

Bleach - Quincys Craft Tab

version 1
version 1

Whole song

  • Easier to play, cause less neck changes. Includes all parts of song.

Interactive

16 views 1 this week
no commentswrite comment
1 2 3 4 5
3 more votes to show rating
add to favorites
launch autoscroll
font size
0
reset
how to read this tab
guitar tuner
Autoscroll
slow
fast
+/-
esc
set tempo
stop
Help us to improve Ultimate-Guitar.com Take our survey!
×
Author
Difficulty
intermediate
About this tab version
Easier to play, cause less neck changes. Includes all parts of song. Was this info helpful? Yes No
Title: Quincy's Craft
Artist: Shiro Sagisu
Album: Bleach OST
Author: Andreas Winter (@WolvDev)

YouTube link to song: https://youtu.be/jtVd6RFWGgE

[Intro]
E|-5--5-------5--5------------|-5--5-------5--5------------|-5--5-------5--5------------|
B|----------------------------|----------------------------|----------------------------|
G|----------------------------|----------------------------|----------------------------|
D|-------7----------7---------|-------7----------7---------|-------7----------7---------|
A|----------------------------|----------------------------|----------------------------|
E|----------------------------|----------------------------|----------------------------|


E|-5--5-------5--5------------|
B|----------------------------|
G|----------------------------|
D|-------7----------7---------|
A|----------------------------|
E|----------------------------|


[Main Part]
E||-------------------------------------------------|-------------------------------------------------|
B||-------------------------------------------------|-------------------------------------------------|
G||-------------7-----------------------7-----------|-------------------------------------------------|
D||-7--9--10-7-----10-9--7--7--9--10-7-----10-9--7--|----7--9-----10-9--7--------7--9-----10-9--7-----|
A||-------------------------------------------------|-10-------10----------10-10-------10----------10-|
E||-------------------------------------------------|-------------------------------------------------|

                                                                                              Repeat 4x
E|-------------------------------------------------|-------------------------------------------------||
B|-------------------------------------------------|-------------------------------------------------||
G|-------------------------------------------------|-------------------------------------------------||
D|-------7-----9--7--------------7-----9--7--------|-------------7-----------------------7-----------||
A|-8--10----8--------10-8--8--10----8--------10-8--|-7--8--10-7-----10-8--7--7--8--10-7-----10-8--7--||
E|-------------------------------------------------|-------------------------------------------------||


[Bridge]
E|-------------------------------------------------|-------------------------------------------------|
B|-------------------------------------------------|-------------------------------------------------|
G|-------------------------------------------------|-------------------------------------------------|
D|-------------5-----------------------5-----------|----0--2-----3--2--0--------0--2-----3--2--0-----|
A|-5--7--8--5-----8--7--5--5--7--8--5-----8--7--5--|-3--------3-----------3--3--------3-----------3--|
E|-------------------------------------------------|-------------------------------------------------|


E|-------------------------------------------------|-------------------------------------------------|
B|-------------------------------------------------|-------------------------------------------------|
G|-------------------------------------------------|-------------------------------------------------|
D|-------0-----2--0--------------0-----2--0--------|-------------0-----------------------0-----------|
A|-2--3-----2--------3--2--2--3-----2--------3--2--|-0--2--3--0-----3--2--0--0--2--3--0-----3--2--0--|
E|-------------------------------------------------|-------------------------------------------------|


[Full pause]
E|--------|
B|--------|
G|--------|
D|--------|
A|--------|
E|--------|


[Main Riff]                                                                                    Repeat 7x
E||-------------------------------------------------|-------------------------------------------------||
B||-------------------------------------------------|-------------------------------------------------||
G||-------------7-----------------------7-----------|-------------7-----------------------7-----------||
D||-7--9--10-7-----10-9--7--7--9--10-7-----10-9--7--|-7--9--10-7-----10-9--7--7--9--10-7-----10-9--7--||
A||-------------------------------------------------|-------------------------------------------------||
E||-------------------------------------------------|-------------------------------------------------||


[Main Part + Bridge]
E||-------------------------------------------------|-------------------------------------------------|
B||-------------------------------------------------|-------------------------------------------------|
G||-------------------------------------------------|-------------------------------------------------|
D||----7--9-----10-9--7--------7--9-----10-9--7-----|-------7-----9--7--------------7-----9--7--------|
A||-10-------10----------10-10-------10----------10-|-8--10----8--------10-8--8--10----8--------10-8--|
E||-------------------------------------------------|-------------------------------------------------|


E|-------------------------------------------------|-------------------------------------------------|
B|-------------------------------------------------|-------------------------------------------------|
G|-------------------------------------------------|-------------------------------------------------|
D|-------------7-----------------------7-----------|-------------5-----------------------5-----------|
A|-7--8--10-7-----10-8--7--7--8--10-7-----10-8--7--|-5--7--8--5-----8--7--5--5--7--8--5-----8--7--5--|
E|-------------------------------------------------|-------------------------------------------------|


E|-------------------------------------------------|-------------------------------------------------|
B|-------------------------------------------------|-------------------------------------------------|
G|-------------------------------------------------|-------------------------------------------------|
D|----0--2-----3--2--0--------0--2-----3--2--0-----|-------0-----2--0--------------0-----2--0--------|
A|-3--------3-----------3--3--------3-----------3--|-2--3-----2--------3--2--2--3-----2--------3--2--|
E|-------------------------------------------------|-------------------------------------------------|

                                            Repeat 1x
E|-------------------------------------------------||
B|-------------------------------------------------||
G|-------------------------------------------------||
D|-------------0-----------------------0-----------||
A|-0--2--3--0-----3--2--0--0--2--3--0-----3--2--0--||
E|-------------------------------------------------||


[End part]
E|---------------------------------|---------------------------------|---------------------------------|
B|---------------------------------|---------------------------------|-8---8---------------------------|
G|-9---9-----------8---8-----------|-9---9-----------10--10----------|-----------------10--10----------|
D|---------7---7-----------7---7---|---------7---7-----------7---7---|---------7---7-----------7---7---|
A|---------------------------------|---------------------------------|---------------------------------|
E|---------------------------------|---------------------------------|---------------------------------|


E|---------------------------------|---------------------------------|---------------------------------|
B|---------------------------------|---------------------------------|---------------------------------|
G|-8---8-----------9---9-----------|-9---9---9---9---8---8---8---8---|-9---9---9---9---10--10--10--10--|
D|---------7---7-----------7---7---|---------------------------------|---------------------------------|
A|---------------------------------|---------------------------------|---------------------------------|
E|---------------------------------|---------------------------------|---------------------------------|


E|---------------------------------|---------------------------------|--------|
B|-8---8---8---8-------------------|---------------------------------|--------|
G|-----------------10--10--10--10--|-8---8---8---8---9---9---9---9---|--------|
D|---------------------------------|---------------------------------|-7------|
A|---------------------------------|---------------------------------|--------|
E|---------------------------------|---------------------------------|--------|
Suggest correction
Give kudos to tab author, rate the tab!
1 2 3 4 5
comments
print report bad tab
guest
You may want to rate the tab now too:
select rating
Wanna post a correction for this tab? Suggest correction