Oops, an error
Loading. Please wait.

Courage The Cowardly Dog Theme Tab

6,757 views 36 this week
no commentswrite comment
1 2 3 4 5
x 3
add to favorites
launch autoscroll
font size
0
reset
how to read this tab
guitar tuner
Autoscroll
slow
fast
+/-
esc
set tempo
stop
Help us to improve Ultimate-Guitar.com Take our survey!
×
Author
-------------------------------------------------------------------------------
                         Courage The Cowardly Dog - Outro
-------------------------------------------------------------------------------
Tabbed by: micssr

       C                 C                 F                 F              
e|-----8-----------------8-----------------8-----------------8---------------|
B|-----8-----------------8-----------------10----------------10--------------|
G|-----9-----------------9-----------------10----------------10--------------|
D|-----10----------------10----------------10----------------10--------------|
A|-----10----------------10----------------8-----------------8---------------|
E|-----8--------8--------8--------8--------8--------8--------8--------8------|
       6x                6x                6x                6x       
       
       C                 C                 F                 Fm              
e|-----8-----------------8-----------------8-----------------8---------------|
B|-----8-----------------8-----------------10----------------9---------------|
G|-----9-----------------9-----------------10----------------10--------------|
D|-----10----------------10----------------10----------------10--------------|
A|-----10----------------10----------------8-----------------8---------------|
E|-----8--------8--------8--------8--------8--------8--------8--------8------|
       6x                6x                6x                6x         

       C                 C                 C                 C              
e|-----8-----------------8-----------------8-----------------8---------------|
B|-----8-----------------8-----------------8-----------------8---------------|
G|-----9-----------------9-----------------9-----------------9---------------|
D|-----10----------------10----------------10----------------10--------------|
A|-----10----------------10----------------10----------------10--------------|
E|-----8--------8--------8--------8--------8--------8--------8--------8------|
       6x                6x                6x                6x         

       C                 C                 C                 C              
e|-----8-----------------8-----------------8-----------------8---------------|
B|-----8-----------------8-----------------8-----------------8---------------|
G|-----9-----------------9-----------------9-----------------9---------------|
D|-----10----------------10----------------10----------------10--------------|
A|-----10----------------10----------------10----------------10--------------|
E|-----8--------8--------8--------8--------8--------8--------8--------8------|
       6x                6x                6x                6x         

       F                 F                 C                 C              
e|-----8-----------------8-----------------8-----------------8---------------|
B|-----10----------------10----------------8-----------------8---------------|
G|-----10----------------10----------------9-----------------9---------------|
D|-----10----------------10----------------10----------------10--------------|
A|-----8-----------------8-----------------10----------------10--------------|
E|-----8--------8--------8--------8--------8--------8--------8--------8------|
       6x                6x                6x                6x       

       F                 Fm                C                 C              
e|-----8-----------------8-----------------8-----------------8---------------|
B|-----10----------------9-----------------8-----------------8---------------|
G|-----10----------------10----------------9-----------------9---------------|
D|-----10----------------10----------------10----------------10--------------|
A|-----8-----------------8-----------------10----------------10--------------|
E|-----8--------8--------8--------8--------8--------8--------8---------------|
       6x                6x                6x                2x       
Suggest correction
Give kudos to tab author, rate the tab!
1 2 3 4 5
comments
print report bad tab
guest
You may want to rate the tab now too:
select rating
Wanna post a correction for this tab? Suggest correction