Oops, an error
Loading. Please wait.

Date A Live Ost Milk Tab

55 views 3 this week
no commentswrite comment
1 2 3 4 5
3 more votes to show rating
add to favorites
launch autoscroll
font size
0
reset
how to read this tab
guitar tuner
Autoscroll
slow
fast
+/-
esc
set tempo
stop
Help us to improve Ultimate-Guitar.com Take our survey!
×
About this tab version
By ear may not be 100% accurate. Was this info helpful? Yes No
Date A Live - Milk

e|------------------------------------------------------------------|
B|------------------------------------------------------------------|
G|------------------------------------------------12----------------|
D|---10---9---7-----------------10----------------------------------|
A|----------------10---8---10---10---7---8---10---10---7---8---10---|
E|------------------------------------------------------------------|


e|-----------0--|---------------|------------3--|-------------------|
B|------3-------|------1-----5--|------1-----0--|-------------------|
G|----0---0-----|----0---0---4--|------0-----0--|------0--------7---|
D|--------------|------------5--|----2---2---2--|----3---3------7---|
A|--3-----------|--3---------5--|--3---------2--|--3----------5---5-|
E|--------------|---------------|---------------|--5--------3-------|


e|----------3---|------------0--|------------3--|-------------------|
B|------5---5---|------------0--|------5-----5--|-------------------|
G|------5---5---|------5-----0--|------5-----5--|------0--------7---|
D|----5-----5---|----3-------0--|----5-------5--|----3---3------7---|
A|--3-------3---|--0------------|--3------------|--3----------5---5-|
E|--------------|---------------|---------------|--5--------3-------|


e|----------------|----------------|----------------|--------3------|
B|----------------|----------------|----------------|---------------|
G|------5--4---5--|------5--4---5--|------5--4---5--|----4-5---4-5--|
D|----5------5----|----5------5----|----5------5----|---------------|
A|----------------|----------------|----------------|---------------|
E|--1-------------|--3-------------|--1-------------|--3------------|


e|----------------|----------------|----------------|--3------------|
B|----------------|----------------|----------------|--3------------|
G|------5--4---5--|------5--4---5--|------5--4---5--|--4------------|
D|----5------5----|----5------5----|----5------5----|--5------------|
A|----------------|----------------|----------------|--5------------|
E|--1-------------|--3-------------|--1-------------|---------------|


CHORDS:
  
Am    G     C    Cadd13    
F     G     C   
Am    G     C


e|----------3----|--------------------------------1---|
B|---------------|-------------------6------------1---|
G|------0--------|----------3---5-------5---3-----3---|
D|---2-----------|-------3------------------------3---|
A|---------------|----5---------------------------1---|
E|---------------|------------------------------------|


e|--------------------------------------|
B|--------------------------------------|
G|--------------------------------------|
D|---10---9---7-----------------10------|
A|----------------10---8---10---10---7--|
E|--------------------------------------|

e|------------0--|------------3--|----------1---------|----0----|
B|------------0--|------5-----5--|----------1-----0---|----1----|
G|------5-----0--|------5-----5--|------2---2---------|----0----|
D|----3-------0--|----5-------5--|----3-----3---------|----2----|
A|--0------------|--3------------|----------3---------|----3----|
E|---------------|---------------|--1-------1---------|----0----|
Suggest correction
Give kudos to tab author, rate the tab!
1 2 3 4 5
comments
print report bad tab
guest
You may want to rate the tab now too:
select rating
Wanna post a correction for this tab? Suggest correction