Oops, an error
Loading. Please wait.

Detective Conan Ost - Conans Theme Ballad Version Tab

55 views 1 this week
no commentswrite comment
1 2 3 4 5
3 more votes to show rating
add to favorites
launch autoscroll
font size
0
reset
how to read this tab
guitar tuner
Autoscroll
slow
fast
+/-
esc
set tempo
stop
Help us to improve Ultimate-Guitar.com Take our survey!
×
Author
Difficulty
intermediate
My favorite Detective Conan Soundtrack
It's always played when the villain confesses everything

Standard Tuning
No Capo
I like to play it with a little overdrive


e|--------------------------------------------------|
B|--------------------------------------------------|
G|-10/12-14------14-13------10/12-13------14-13-----|   
D|----------12---------12------------12---------12--|
A|--------------------------------------------------|
E|--------------------------------------------------|(x2)


e|----------10~-------------12^(13)----10--9h10h12~---|
B|-11-10----------12h13h14----------------------------|
G|-------12-------------------------------------------|
D|----------------------------------------------------|
A|----------------------------------------------------|
E|----------------------------------------------------|

e|--------------------------------------------------|
B|--------------------------------------------------|
G|-10/12-14------14-13------10/12-13------14-13-----|
D|----------12---------12------------12---------12--|
A|--------------------------------------------------|
E|--------------------------------------------------|(x2)


e|----------10~-------------12^(13)----10--9h10h12~---|
B|-11-10----------12h13h14----------------------------|
G|-------12-------------------------------------------|
D|----------------------------------------------------|
A|----------------------------------------------------|
E|----------------------------------------------------|

e|----10-12-12^(13)--12-10-------------------9^(10)--9~---|
B|-13----------------------13-11-10-----------------------|
G|----------------------------------12-10-9---------------|
D|--------------------------------------------------------|
A|--------------------------------------------------------|
E|--------------------------------------------------------|

e|---10-12-12^(13)-12-10-15-13-12-10-13-12----|
B|--------------------------------------------|
G|--------------------------------------------|
D|--------------------------------------------|
A|--------------------------------------------|
E|--------------------------------------------|

e|--------------------------------------------------|
B|--------------------------------------------------|
G|-10/12-14------14-13------10/12-13------14-13-----|   
D|----------12---------12------------12---------12--|
A|--------------------------------------------------|
E|--------------------------------------------------|(x2)

e|----------10~-------------12^(13)----10--9h10h12~---|
B|-11-10----------12h13h14----------------------------|
G|-------12-------------------------------------------|
D|----------------------------------------------------|
A|----------------------------------------------------|
E|----------------------------------------------------|

e|--10-12-10~------10-9-10~------13^(15)-12^(13)-12-(9)/10-------------------|
B|---------------------------------------------------------------------------|
G|---------------------------------------------------------------------------|
D|---------------------------------------------------------------------------|
A|---------------------------------------------------------------------------|
E|---------------------------------------------------------------------------|

************************************

| h  Hammer-on
| /  Slide up
| ~  Vibrato

************************************
Suggest correction
Give kudos to tab author, rate the tab!
1 2 3 4 5
comments
print report bad tab
guest
You may want to rate the tab now too:
select rating
Wanna post a correction for this tab? Suggest correction