Oops, an error
Loading. Please wait.

Dinosaur Train Theme bass

161 views 1 this week
no commentswrite comment
1 2 3 4 5
2 more votes to show rating
add to favorites
×
Save as Personal and add changes to this tab that will be seen only by you. Learn more ›
×
You can save this tab as Personal to edit and correct it or add notes. All changes will be seen only by you. Learn more »
launch autoscroll
font size
0
reset
guitar tuner
edit
Autoscroll
slow
fast
+/-
esc
set tempo
stop
-------------------------------------------------------------------------------
                             Dinosaur Train Theme
-------------------------------------------------------------------------------
Tabbed by: I am Wolverine
E-mail: millegas08@yahoo.com

Tuning: Standard

The initial fingerings I put here weren't played with a bass guitar, but my electric that I
had available at the moment. Also, the rhythm isn't straight for most of the song, but there
would be no room to fit [u]ALL[\u] the notes in the allotted space. Just play it like it
sounds when a horse trots where indicated: 1-&-a 2-&-a 3-&-a 4-&-a

 
G|--7-7----------------------------------------------------------------------|
D|------7-7------------------------------------------------------------------|
A|----------7----------------------------------------------------------------|
E|---------------------------------------------------------------------------|
B|---------------------------------------------------------------------------|

syncopated
G|---------------------------------------------------------------------------|
D|--2-2-5-5-2-2-5-5-2-2-5-5-2-2-5-5-2-2-5-5-2-2-5-5-2------------------------|
A|---------------------------------------------------------------------------|
E|---------------------------------------------------------------------------|
B|---------------------------------------------------------------------------|

G|--2-2-5-5-2-2-5-5-----------------2-2-5-5-2-2-5-5-4------------------------|
D|------------------2-2-5-5-2-2-5-5------------------------------------------|
A|---------------------------------------------------------------------------|
E|---------------------------------------------------------------------------|
B|---------------------------------------------------------------------------|

G|---------------------------------------------------------------------------|
D|--2-2-5-5-2-2-5-5-2-2-5-5-2-2-5-5-2-2-5-5-2-2-5-5-2------------------------|
A|---------------------------------------------------------------------------|
E|---------------------------------------------------------------------------|
B|---------------------------------------------------------------------------|

G|--2-2-5-5-2-2-5-5-----------------2-2-5-5-2-2-5-5-4------------------------|
D|------------------2-2-5-5-2-2-5-5------------------------------------------|
A|---------------------------------------------------------------------------|
E|---------------------------------------------------------------------------|
B|---------------------------------------------------------------------------|

straight
G|---------------------------------------------------------------------------|
D|--2-2-2-2-2-2-2-2-4-4-4-4-4-4-4-4-5-5-5-5-5-5-5-5-5-7-7-7-7-7-7-7-7--------|
A|---------------------------------------------------------------------------|
E|---------------------------------------------------------------------------|
B|---------------------------------------------------------------------------|

G|------------------5-5-----5-5-----2-2-----2-2-----2-2------2----4h2--------|
D|--2-2-5-5-2-2-5-5-----5-5-----5-5-----2-2-----2-2-----2-2----------5-2-----|
A|---------------------------------------------------------------------------|
E|---------------------------------------------------------------------------|
B|---------------------------------------------------------------------------|

            
            
Suggest correction
Creating personal tab
Creating personal tab
You can edit any tab online and save it as your Personal.

You can edit, replace or remove any tab part or add personal notes – all changes will be seen only by you.

Personal tabs can be accessed anytime from any device, even offline.
Learn more »
Give kudos to tab author, rate the tab!
1 2 3 4 5
comments
print report bad tab
guest
You may want to rate the tab now too:
select rating
Wanna post a correction for this tab? Suggest correction