Oops, an error
Loading. Please wait.

Disneys Recess Tab

13 views 13 this week
no commentswrite comment
1 2 3 4 5
3 more votes to show rating
add to favorites
launch autoscroll
font size
0
reset
how to read this tab
guitar tuner
Autoscroll
slow
fast
+/-
esc
set tempo
stop
Help us to improve Ultimate-Guitar.com Take our survey!
×
Author
[Main riff]
e|---------------------------------------------------------------------------|
B|-------------------------------------------------------------6-------------|
G|-2-1-2-5-2-3-2-0-------------3-0-2-1-2-7-5---2-1-2-5---7-6-7---------------|
D|-----------------3-2---5-4-5-------------------------3---------------------|
A|---------------------------------------------------------------------------|
E|---------------------------------------------------------------------------|

e|---------------------------------------------------------------------------|
B|-5-------------------------------------------------------------------------|
G|---7-5-2-0-------0---------------------------------------------------------|
D|--------------2----3-------------------------------------------------------|
A|------------3--------------------------------------------------------------|
E|---------------------------------------------------------------------------|
Suggest correction
Give kudos to tab author, rate the tab!
1 2 3 4 5
comments
print report bad tab
guest
You may want to rate the tab now too:
select rating
Wanna post a correction for this tab? Suggest correction