Oops, an error
Loading. Please wait.

Fairy Tail - Erza Vs Erza tab

version 1
version 1

Whole song

  • This is only the melody part of the song.

Interactive

172 views 1 this week
1 commentread comment
1 2 3 4 5
3 more votes to show rating
add to favorites
×
Save as Personal and add changes to this tab that will be seen only by you. Learn more ›
×
You can save this tab as Personal to edit and correct it or add notes. All changes will be seen only by you. Learn more »
launch autoscroll
font size
0
reset
how to read this tab
guitar tuner
edit
Autoscroll
slow
fast
+/-
esc
set tempo
stop
Author
Difficulty
About this tab version
This is only the melody part of the song. Was this info helpful? Yes No
[Intro]


e|--------------|----------------|----------------|----------------|
B|--------------|----------------|----------------|----------------|
G|--------------|----------------|----4-2---------|-2--------------|
D|2---2-5-2---2-|--2-5-2-------2-|5-------5---5-4-|----5-4---4-1-4-|              Play that 4 times. 
A|--2-----------|------------2---|----------------|----------------|
E|--------------|----------3-----|----------------|----------------|


[Interlude]


e|-------------|--------------------|
B|-------------|--------------------|
G|--------2----|--------------------|
D|----1-4---4-5|-4---2--------------|
A|--2----------|---------5---4------|
E|3------------|--------------------|


[Verse]


e|------------0-|--------|----------------|------------------|
B|--------------|--3-----|--3-------------|------------------|
G|--------------|------4-|-----2-2-2-4-2--|-----2------------|
D|--------------|--------|----------------|-5------5-4-------|
A|5---4-2-4-5---|--------|----------------|------------------|
E|--------------|--------|----------------|------------------|
                                                                                 Play that 2 times         
e|------------0-|--------|-----------0-2-3-2|-----2-3-2------|
B|--------------|--3-----|--2---------------|-5-3------------|
G|--------------|------4-|------2-4---------|----------------|
D|--------------|--------|------------------|----------------|
A|5---4-2-4-5---|--------|------------------|----------------|
E|--------------|--------|------------------|----------------|


[Another Interlude]


e|---------------|-----------------|----------------|---------------------|
B|---------------|-------------1-0-|----------------|---------------------|
G|---------------|-----------------|----------------|---------------------|
D|--2-4---------2|---2-4-----------|--2-4---------2-|--2-4-----2----------|
A|5-----5-4-1-4--|-5-----5-4-1-----|5-----5-4-1-4---|5-----5-2---5-4------|
E|---------------|-----------------|----------------|---------------------|

e|----------------|-------------|
B|----------------|-------------|
G|----------------|------2----5-|
D|5-4-2-4-2-----2-|4-1-4---4----|
A|----------5-3---|-------------|
E|----------------|-------------|


[Chorus]

e|----------|------------|------------------|------------|
B|----------|------------|------------------|------------|
G|----------|--4---5---4-|--2-------2-4-----|0-2---------|
D|5-4-2-----|------------|------5---------0-|----5---4---|
A|--------2-|------------|------------------|------------|
E|----------|------------|------------------|------------|
                                                                                 Play that 4 times
e|--------------|----------|-----------------|-----------|
B|--------------|----------|-----------------|-----------|
G|------------5-|4-0-2---4-|------2----------|--0-2---4--|
D|4-0---0-2-----|----------|--5-------2-4--0-|4----------|
A|----3---------|----------|-----------------|-----------|
E|--------------|----------|-----------------|-----------|

[Outro]

e|--------------|---------------|-----------------|----------------|
B|--------------|---------------|-----------------|----------------|
G|--------------|---------------|-----4-2---------|-2--------------|
D|2---2-5-2---2-|--2-5-2-------2|-5-------5---5-4-|----5-4---4-1-4-|              Play that 4 times. 
A|--2-----------|------------2--|-----------------|----------------|
E|--------------|----------3----|-----------------|----------------|

e|-------------|--------------------|
B|-------------|--------------------|
G|--------2----|--------------------|
D|----1-4---4-5|-4---2--------------|                                           Play that once.
A|--2----------|---------5---4---2--|
E|3------------|--------------------| 

            
            
Suggest correction
Creating personal tab
Creating personal tab
You can edit any tab online and save it as your Personal.

You can edit, replace or remove any tab part or add personal notes – all changes will be seen only by you.

Personal tabs can be accessed anytime from any device, even offline.
Learn more »
Give kudos to tab author, rate the tab!
1 2 3 4 5
comments
print report bad tab
1 comment total.
0 reply
DexterManson 43 Dec 28, 2016 09:19 AM

If you need help with the timing, write to DexterM4nson@gmail.com.

I´ll answer as fast as possible. I also got a PowerTabEditor version of this, that whould make it a bit easier. =)

Good Luck!

guest
You may want to rate the tab now too:
select rating
Wanna post a correction for this tab? Suggest correction