Oops, an error
Loading. Please wait.

Fairy Tail - Golden Grasslands Tab

397 views 21 this week
no commentswrite comment
1 2 3 4 5
3 more votes to show rating
add to favorites
launch autoscroll
font size
0
reset
how to read this tab
guitar tuner
Autoscroll
slow
fast
+/-
esc
set tempo
stop
Help us to improve Ultimate-Guitar.com Take our survey!
×
Author
Difficulty
About this tab version
Easy and simple tabs for the song Golden Grasslands. Was this info helpful? Yes No
This tab i Golden Grasslands from fairy tail

h = Hammer 

[Section 1]

Play x1
e|--------------0-----0--3--|--0-------------------------|------------------------0-|---------------1-----0--|
B|-----1--0--1-----3--------|----------------------------|--3---3--0--1--0-h1--3----|---------1--------------|
G|--2-----------------------|---------0------------------|--------------------------|--2---------------------|
D|--------------------------|----------------3-----2-----|--------------------------|------------------------|
A|--0-----------------------|--3-------------------------|--------------------------|--0---------------------|
E|--------------------------|----------------------------|--3-----------------------|------------------------|

Play x1
e|--------------0-----0--3--|--0-------------------------|------------------------0-|----------------1----3--|
B|-----1--0--1-----3--------|----------------------------|--3---3--0--1--0-h1--3----|---------1--------------|
G|--2-----------------------|---------0------------------|--------------------------|--2---------------------|
D|--------------------------|----------------3-----2-----|--------------------------|------------------------|
A|--0-----------------------|--3-------------------------|--------------------------|--0---------------------|
E|--------------------------|----------------------------|--3-----------------------|------------------------|


[Section 2]

Play x2
e|------0-------------------|----------------------------|-------------------0------|------------------------|
B|--3------3-----1----------|--0--------------0--h1------|---------------1----------|---1--------------------|
G|--------------------2-----|-------2----0---------------|--2--------2--------------|------------------------|
D|--3-----------------------|----------------------------|-------2------------------|------------------------|
A|--------------------------|----------------------------|--0-----------------------|------------------------|
E|--------------------------|--3-------------------------|--------------------------|------------------------|

Play x1
e|------0-------------------|----------------------------|-------------------0------|------------------------|
B|--3------3-----1----------|--0--------------0--h1------|---------------1----------|------------------------|
G|--------------------2-----|-------2----0---------------|--2--------2--------------|---2--------------------|
D|--3-----------------------|----------------------------|-------2------------------|------------------------|
A|--------------------------|----------------------------|--0-----------------------|------------------------|
E|--------------------------|--3-------------------------|--------------------------|------------------------|

Play x1
e|--2---------------2-------|--3/5-----3-----5-----7-----|--8------7------5---------|-----------3-----------3|
B|-------------3------------|----------------------------|----------------------8---|-3------3--3--3-----3--3|
G|--------2-----------------|----------------------------|--------------------------|-----0-----0-----0------|
D|--0-----------------------|----------------------------|--------------------------|--0---------------------|
A|--------------------------|----------------------------|--8-----------------------|------------------------|
E|--------------------------|--0-------------------------|--------------------------|-3---------------------3|


[Section 3]

Play x1
e|--------------------------|----------0---5---5---3---0-|-----------0--------------|------------------------|
B|--------------------------|--0---1---------------------|--3---3-------3--1--0--3--|--------------0---------|
G|--2---2---0---2---0---2---|----------------------------|--------------------------|--2---0---2-------2-----|
D|--------------------------|----------------------------|--------------------------|------------------------|
A|--0-----------------------|----------------------------|--------------------------|--0---------------0-----|
E|--------------------------|----------------------------|--3-----------------------|----------3-------------|

Play x1
e|--------------------------|----------0---5---5---3---0-|-----------0--------------|------------------------|
B|--------------------------|--0---1---------------------|--3---3-------3--1--0--3--|--------------0---------|
G|--2---2---0---2---0---2---|----------------------------|--------------------------|--2---0---2------------2|
D|--------------------------|----------------------------|--------------------------|--------------------2---|
A|--0-----------------------|----------------------------|--------------------------|--0--------------0------|
E|--------------------------|----------------------------|--3-----------------------|----------3-------------|
Suggest correction
Give kudos to tab author, rate the tab!
1 2 3 4 5
comments
print report bad tab
guest
You may want to rate the tab now too:
select rating
Wanna post a correction for this tab? Suggest correction