Oops, an error
Loading. Please wait.

Flintstones Theme Bass Tab

version 1
version 1

Whole song

  • This is an easy and simple bass tab for The Flintstones Theme.

Interactive

19 views 3 this week
no commentswrite comment
1 2 3 4 5
3 more votes to show rating
add to favorites
launch autoscroll
font size
0
reset
guitar tuner
Autoscroll
slow
fast
+/-
esc
set tempo
stop
Help us to improve Ultimate-Guitar.com Take our survey!
×
Author
Difficulty
novice
About this tab version
This is an easy and simple bass tab for The Flintstones Theme. Was this info helpful? Yes No
[Intro]

G|------5--2----------------------|
D|--5--------5---5-3-2-2-3-5------|
A|----3--------3-------------3-5-7|
E|--------------------------------|
                                   
G|------5--2----------------------| 
D|--5--------5---5—3—2—2—3—5------|
A|----3--------3-------------3-5-3|
E|--------------------------------|
                                  
[Verse]

G|--------------------------------|
D|-7---8--7-7-5-5-7-5-------------|
A|---5----------------------------|
E|--------------------------------|
                                    
G|--------------------------------|
D|--5---7-5-5-3-3-5-3-------------|
A|----3---------------------------|
E|--------------------------------|
                                  
[Outro]

G|-----3--0-----------------------|
D|-3--------3---3-1-0-0-1-3-------|
A|---1--------1------------1-3----|
E|--------------------------------|
                                    
G|--------------------------3-5-3-|
D|-0-1-3----0-1-3-----0-1-3-------|
A|------1-3-------1-3-------------|
E|--------------------------------|
Suggest correction
Give kudos to tab author, rate the tab!
1 2 3 4 5
comments
print report bad tab
guest
You may want to rate the tab now too:
select rating
Wanna post a correction for this tab? Suggest correction