Oops, an error
Loading. Please wait.

Futurama Theme Tab

version 4
version 4

Whole song

Interactive

2,072 views 1 this week
no commentswrite comment
1 2 3 4 5
please rate
add to favorites
launch autoscroll
font size
0
reset
how to read this tab
guitar tuner
Autoscroll
slow
fast
+/-
esc
set tempo
stop
Help us to improve Ultimate-Guitar.com Take our survey!
×
Author
yeh its like this you can do it witout chords too but  yeh i like dis one btter yeh its 
tuning im 99% sure this is correct :)


e-----------------------------------|
a-22----00-22--22----00-------------|
d-44-22-22-44--44-22-22-221--0-0-54-|
g----44-----------44----443--2-2-76-|
b-----------------------------------|
e-----------------------------------|

e-----------------------------------|
a-3-3-554-----54-7 7 5544-----------|
d-5-5-776-0-0-76-9-9-7766-----------|
g---------2-2-----------------------|so yeh happy tabbin peoples
b-----------------------------------|
e-----------------------------------|
Suggest correction
Give kudos to tab author, rate the tab!
1 2 3 4 5
comments
print report bad tab
guest
You may want to rate the tab now too:
select rating
Wanna post a correction for this tab? Suggest correction