Oops, an error
Loading. Please wait.

Gravity Falls - Weirdmageddon Tab

112 views 9 this week
no commentswrite comment
1 2 3 4 5
3 more votes to show rating
add to favorites
launch autoscroll
font size
0
reset
how to read this tab
guitar tuner
Autoscroll
slow
fast
+/-
esc
set tempo
stop
Help us to improve Ultimate-Guitar.com Take our survey!
×
Author
Difficulty
Tuning
intermediate
D A D G B E
Wierdmageddon
Gravity Falls

Song By Brad Breek
Arranged By John Lee

Lute + Drop-D tuning (DADF#BE)



      E  E  E  E  E  E  E  E     E  E  E  E  E  E  E  E     E  E  E  E  E  E  E  E   
E ||--1-----------1-----------|--1-----------1-----------|--------------------------|
B ||-----3-----3-----3-----3--|-----1-----1-----1--------|--5-----------4-----------|
F#||--------3-----------3-----|--------3-----------3--6--|-----7-----7-----6-----6--|
D ||--------------------------|--------------------------|--------7-----------6-----|
A ||--------------------------|--------------------------|--0-----------------------|
D ||--0--------0--------0--2--|--3--------3--------3--5--|--------------------------|


  E  E  E  E  E  E  E  E     E  E  E  E  E  E  E  E     E  E  E  E  E  E  E  E     E  E  E  E  E  E  E  E   
--------------------------|--------------------0-----|--1-----------------------|--5--------3--------5-----|
--3-----------2-----------|--3-----------------------|--------------------------|--------------------------|
-----5-----5-----4-----4--|--------------------------|--------------------------|--------------3-----------|
--------6-----------5-----|--------0-----3-----0-----|--------0-----3-----0-----|--------3-----------3-----|
--------------------------|-----0-----0-----0-----0--|-----0-----0-----0-----0--|-----3-----3-----3-----3--|
--------------------------|--0-----------------------|--0-----------------------|--3-----------------------|


  E  E  E  E  E  E  E  E     E  E  E  E  E  E  E  E     E  E  E  E  E  E  E  E     E  E  E  E  E  E  E  E   
-----5-----3--------5-----|--------------------0-----|--1-----------0-----------|--3-----------5-----------|
--------------------------|--3-----------------------|--------------------------|--------------------------|
--6-----------3-----------|--------4-----------4-----|--------4--------------4--|--------6--------------6--|
--------3-----------3-----|-----3-----3-----3-----3--|-----3-----3--------3-----|-----5-----5--------5-----|
-----------3-----3-----3--|--1-----------1-----------|--1--------------1--------|--3--------------3--------|
--3-----------------------|--------------------------|--------------------------|--------------------------|


  E  E  E  E  E  E  E  E     E  E  E  E  E  E  E  E     E  E  E  E  E  E  E  E     E  E  E  E  E  E  E  E   
--3-----------------------|--------1--------------1--|--5-----5-----------------|--------5-----4-----5-----|
--------------6-----------|--------------------1-----|--------------6--5--4--3--|--------------------------|
--------6--------------6--|--------------------------|--------------------------|--------------------------|
-----5-----5--------5-----|--------0-----------0-----|--------0-----------0-----|--------3-----------3-----|
--3--------------3--------|-----0-----0-----0-----0--|-----0-----0-----0-----0--|-----3-----3-----3-----3--|
--------------------------|--0-----------0-----------|--0-----------0-----------|--3-----------3-----------|


  E  E  E  E  E  E  E  E     E  E  E  E  E  E  E  E      E  E   E  E  E  E   E  E   
--3--3--3--------3--------|--------------------------|-----------------------------|
-----------6--4-----6-----|--------6-----6-----------|--10-----10--9--8------------|
--------------------------|--------------------6-----|----------------------11-----|
--------3-----------3-----|--------8-----------8-----|----------8------------8-----|
-----3-----------3-----3--|-----8-----8-----8-----8--|------8------8-----8------8--|
--3-----------3-----------|--8-----------8-----------|---8------------8------------|


   E   E   E   E   E   E   E   E     E  E  E  E  E  E   E  E     E  E   E  E  E  E   E  E   
----------------------------------|--------9-----9------------|---------------8-----10-----|
--------------------------10------|---------------------------|--------11------------------|
--11------------------------------|--------------------11-----|----------------------------|
--------------------------10------|--------7------------7-----|---------8------------8-----|
--10------10--11--12--13------10--|-----7-----7-----7------7--|-----8------8-----8------8--|
------10--------------------------|--7-----------7------------|--8------------8------------|


                                                                         |--3--|  |--3--|  |--3--|   
   E   E   E   E   E   E   E   E      E  E   E  E  E  E  E   E      Q    E  E  E  E  E  E  E  E  E   
--12------------------------------|----------------9--9--9--12--|--10-------------------------------|
--------------------------14------|--10-----10------------------|-----------------------------------|
----------13--12--11--10----------|-----------------------------|--------7--------6--------5--------|
----------10--------------10------|----------7-----------7------|-----------------------------------|
------10----------------------10--|------7------7-----7------7--|-----------8--5-----7--4-----7--3--|
--10------------------------------|---7------------7------------|---0-------------------------------|


  H         H             W
-----------10--------|---------------------||
---------------------|----I'm--------------||
---------------------|----watching---------||
---------------------|----you--------------||
---------------------|----kids!------------||
--0------------------|---------------------||




Duration Legend
---------------
W - whole
H - half
Q - quarter
E - 8th
. - note dotted
|-n-|  - n-tuplets
Suggest correction
Give kudos to tab author, rate the tab!
1 2 3 4 5
comments
print report bad tab
guest
You may want to rate the tab now too:
select rating
Wanna post a correction for this tab? Suggest correction