Oops, an error
Loading. Please wait.

Hedgehogs Dilemma Neon Genesis Evangelion Tab

4 views 3 this week
no commentswrite comment
1 2 3 4 5
3 more votes to show rating
add to favorites
launch autoscroll
font size
0
reset
how to read this tab
guitar tuner
Autoscroll
slow
fast
+/-
esc
set tempo
stop
Help us to improve Ultimate-Guitar.com Take our survey!
×
Author
Difficulty
[Main riff]
e|--------0-------5--3------------------0--0------5-5-3----------|
B|----------3-----3-----3---6-5-3-2-1-2----3-3----0-----3-5-6-5--|
G|-----2-------2--3----------------------0-0---2--0--------------|
D|-0-3------------3------------------------0------0--------------|
A|---------------------------------------------------------------|
E|---------------------------------------------------------------|

e|--------------0------------------------------------------------|
B|-6-5--3-2-1-2--------------------------------------------------|
G|----------------0----------------------------------------------|
D|---------------------------------------------------------------|
A|---------------------------------------------------------------|
E|---------------------------------------------------------------|
Suggest correction
Give kudos to tab author, rate the tab!
1 2 3 4 5
comments
print report bad tab
guest
You may want to rate the tab now too:
select rating
Wanna post a correction for this tab? Suggest correction