Oops, an error
Loading. Please wait.

Howls Moving Castle - Merry-Go-Round Of Life Ukulele Chords

115 views 45 this week
no commentswrite comment
1 2 3 4 5
3 more votes to show rating
add to favorites
launch autoscroll
font size
0
reset
transpose
0
reset
display chords
guitar tuner
Autoscroll
slow
fast
+/-
esc
set tempo
stop
Help us to improve Ultimate-Guitar.com Take our survey!
×
Author
Howls Moving Castle Main Theme (Merry Go Round of Life) 

CREDIT OF THIS TABBING DOES NOT GO TO ME. 


A|-5-6-5-6-5-6-3-5-3-5-3-5-1-3-1-3-1-3-------|
E|-------------------------------------5p3p2-|
C|-------------------------------------------|
G|-------------------------------------------|

A|------------1----|--5--------5----|--3--------------|--1------------|
E|-------3---------|--3--------L----|--2----6----5----|--1------------|
C|--2--------------|--3--------L----|--2----L----L----|--2------------|
G|-----------------|--0--------L----|--2----L----L----|--0------------|

       
A|-------1--L--1--5--|--10--------10----|--10----12----8--6--|--8------------|
E|-------3--3--L--L--|--11---------L----|--11-----L----------|--5------------|
C|-------2--L-----L--|---0---------L----|---9-----L----------|---------------|
G|--0----L--L--L--L--|---0---------L----|--------------------|--7------------|

 
A|-------0--0--5--8--|--12--------10----|--8----7----8----|--10--------8----|
E|-------1--L--L--L--|--10---------L----|-----------------|--10--------L----|
C|--2----L--L--L--L--|--10---------L----|--7----L----L----|---9--------L----|
G|-------------------|---9---------L----|--6----L----L----|-----------------|

       
A|--7--------5----|--3----1----3----|--5----3---------|--0----L---------|
E|--5--------L----|--1----L----L----|--3----L----3----|-------3s--------|
C|--0--------L----|--2----L----L----|--4----L----L----|-------3s--------|
G|----------------|-----------------|-----------------|-----------------|

A|--L------------|-------1----1----|-------1----1----|-------1----1----|
E|--2------------|-------3----3----|-------3----3----|-------3----3----|
C|--2------------|-------2----2----|--2----2----2----|-------2----2----|
G|---------------|--0--------------|-----------------|--0--------------|

    
A|------------1----|--5--------5----|--3----L----L----|--1----1----1----|
E|-------3---------|--3--------L----|--2----6----5----|-------3----3----|
C|--2--------------|--3--------L----|--2----L----L----|-------2----2----|
G|-----------------|--0--------L----|--2----L----L----|-------0----0----|

 
A|-------1----5----|--10--------10----|--10----8----6----|--8-----L-----L----|
E|--3----3----3----|--11---------L----|--11--------------|--5----10----10----|
C|--2----2----2----|---0---------L----|---9--------------|--------9-----9----|
G|--0----0----0----|---0---------L----|------------------|--7----------------|

   
A|--0----5----8----|--12-----L----10----|--8----7----8----|--10-----L-----8----|
E|--1----L---------|--10----10----10----|-----------------|--10----10----10----|
C|--2----L---------|--10----10----10----|--7----L----L----|---9-----9-----9----|
G|-----------------|---9-----L----------|--6----L----L----|--------------------|

     
A|--7----L----5----|--17----15--17--15--13--|--12------14--16----|
E|--8----8----8----|--13--------------------|---9------10--12----|
C|--6----9----9----|---------L---L---L---L--|--------------------|
G|-----------------|------------------------|--------------------|


A|--17----5----7----|--9----5----0----|-----------------|--0---------5----|
E|--------2----2----|-------5----5----|-------2----3----|-------2---------|
C|--------2----2----|--2----2----2----|--2--------------|------------2----|
G|------------------|-----------------|-----------------|-----------------|


A|--6----L----5----|--3----L----L----|--1----3----5----|-----------------|
E|-------3----3----|--2----6----5----|--1----L----L----|--1----5----1----|
C|--5----2----2----|--2----L----L----|--2----L----L----|-------2----2----|
G|-----------------|--2----L----L----|--2----L----L----|-----------------|

   
A|--6----L----5----|--3------1--3----|--5----L----L----|--L---------5----|
E|--3----3----3----|--2------L--L----|-----------------|--3---------1----|
C|--3----3----3----|--2------L--L----|-------2----2----|-------2---------|
G|--0--------------|--2------L--L----|-------2----2----|-------2---------|
                                                              
    
A|--5--7--5--4----5----|--8----7----5----|--4--------7----|--0----L----0----|
E|--1------------------|--5----3----1----|--0-------------|-------5----5----|
C|-----------2----2----|-----------------|----------------|--1----1----1----|
G|-----------2----2----|-----------------|----------------|-----------------|

A|--8----L----8----|--8----7----5----|--0--L--L--L--L--L--|--0----L----L----|
E|--5----L----5----|--5----3----1----|--0--------0-----0--|------------0----|
C|-------2----2----|-----------------|--1-----------1-----|-----------------|
G|-------2----2----|-----------------|--2--1--2-----------|--2----1---------|

A|-----------------|--3----1----0----|--1----10--8--6--5--|--3--2--1--0--------|
E|--2---------2----|--2----3----5----|--------6-----------|--------1-----3--1--|
C|--2----3----2----|-----------------|--2-----5-----------|--------2-----------|
G|-----------------|-----------------|--------------------|--------------------|

A|-----------------|-----------------|--0----10--8--7--5--|--3--1--0--------0--|
E|--0----L----0----|--0----1----3----|--0-----5-----------|--1-----0--0--------|
C|-------2----0----|-----------------|--0-----0-----------|--------0-----0-----|
G|-----------------|-----------------|--------------------|--------------------|


A|--7----6----7----|--10----8----7----|--5----4----5----|--7----L----0----|
E|-------5----5----|---0----4----4----|--5----5----5----|--5----5----5----|
C|-----------------|------------------|-------4----4----|-------1----1----|
G|-----------------|--------4----4----|-----------------|-----------------|


A|--3----L----1----|--0----L---------|-------3--5--3--1----|-------1--3--1--0----|
E|-------3----3----|-------3----3----|--2----2-------------|-------2-------------|
C|--3----0----0----|--0----0----0----|-------2-------------|--2----2-------------|
G|-----------------|-----------------|---------------------|---------------------|


A|---------------------|---------------------|--6----11----14----|
E|-------3--5--3--2----|-------3--5--3--2----|-------------------|
C|--2----4--------2----|--2----1--------2----|--3-----8----11----|
G|---------------------|---------------------|-------------------|

       
A|------------3----|--7--------7----|--5----L----L----|--3------------|
E|-------5---------|--5--------L----|--4----8----7----|--0------------|
C|--4--------------|--5--------L----|--4----L----L----|--0------------|
G|-----------------|--5--------L----|--4----L----L----|--2------------|

         
A|--0----3----7----|--12--------12----|--12----10----8----|--10------------|
E|--0----L----L----|--13---------L----|--10-----L----L----|---7------------|
C|--0----L----L----|--14---------L----|--11-----L----L----|---0------------|
G|--2----L----L----|------------------|--10-----L----L----|---0------------|

 
A|-------7----10----|--14--------12----|---L----10--9--8--9--|--12--------10----|
E|--7---------------|--12---------L----|---------------------|---7---------L----|
C|------------------|--12---------L----|---------------------|---7---------L----|
G|------------------|--11---------L----|---------------------|---0---------L----|

  
A|--L----9--7--6--7--|--7----5--7--5--3--|--2------4--6----|--7----7----7----|
E|-------------------|--3----3--L--3--L--|---------0--2----|--4----0----0----|
C|-------------------|--0----4--L--4--L--|--3--------------|--4--------------|
G|-------------------|--0----------------|-----------------|--4--------------|

  
A|--7----7----7----|--7---------7----|--7---------7----|--7---------6----|
E|--4----0----0----|--0---------0----|--4---------0----|--4---------2----|
C|--4--------------|------------0----|--4---------0----|--4---------3----|
G|--4--------------|------------2----|--4---------2----|--4---------4----|
   
A|--7--------------||
E|--4--------------||
C|--4--------------||
G|--4--------------||



************************************

| p  Pull-off
| L  Tied note

************************************
Suggest correction
Give kudos to tab author, rate the tab!
1 2 3 4 5
comments
print report bad tab
guest
You may want to rate the tab now too:
select rating
Wanna post a correction for this tab? Suggest correction