Oops, an error
Loading. Please wait.

Huntik Go - Theme Song Tab

346 views 6 this week
no commentswrite comment
1 2 3 4 5
3 more votes to show rating
add to favorites
launch autoscroll
font size
0
reset
how to read this tab
guitar tuner
Autoscroll
slow
fast
+/-
esc
set tempo
stop
Author
Difficulty
About this tab version
Currently no tab of this song on the internet (that I'm aware of). Was this info helpful? Yes No
HUNTIK THEME SONG - Sung by Jeff Washburn

I'd been looking all over the internet for a tab for this awesome song and had drawn a blank so I
tabbed it by ear from this guy's cover https://www.youtube.com/watch?v=z6yivDYir54 so definitely
check his channel out! Enjoy!

[INTRO]
E|-----------|-----------|------------------------|
B|-------7-8-|-------7-8-|-------7-8---10-8-7-8---|
G|-9-x-9-----|-9-x-9-----|-9-x-9-----9----------9-|
D|-9-x-9-----|-9-x-9-----|-9-x-9------------------| x2
A|-7-x-7-----|-7-x-7-----|-7-x-7------------------|
E|-----------|-----------|------------------------|

[VERSE]
E|---------------|------------|---------------|------------|
B|---------------|------------|---------------|------------|
G|-4-4-5-4-----4-|-4-4------4-|-4-4-5-4---7-4-|-4-4------4-|
D|---------7-5---|-----7-5-7--|---------7-----|-----7-5-7--|
A|---------------|------------|---------------|------------|
E|---------------|------------|---------------|------------|

[BRIDGE]
E|------------|------------|--------------------|
B|------------|------------|------------5-3-5-7-|
G|-4-2-4-2-4*-|-4-2-4-2-4*-|-4-2-4-2-4*---------|
D|------------|------------|--------------------|
A|------------|------------|--------------------|
E|------------|------------|--------------------|

[CHORUS]
E|-----------------------|-------------------------|----------------|-------------|
B|---------8-7---7-------|---------8-7-8-10-12b-10-|---------8-10---|---------8-7-|
G|-9-9-9-7-----9---7~-11-|-9-9-9-7-----------------|-9-9-9-7------9-|-9-7-9-7-----|
D|-----------------------|-------------------------|----------------|-------------|
A|-----------------------|-------------------------|----------------|-------------|
E|-----------------------|-------------------------|----------------|-------------|

[PRE-VERSE]
E|-----------|-----------|------------------------|
B|-------7-8-|-------7-8-|-------7-8---10-8-7-8---|
G|-9-x-9-----|-9-x-9-----|-9-x-9-----9----------9-|
D|-9-x-9-----|-9-x-9-----|-9-x-9------------------|
A|-7-x-7-----|-7-x-7-----|-7-x-7------------------|
E|-----------|-----------|------------------------|

[VERSE]
E|---------------|------------|---------------|------------|
B|---------------|------------|---------------|------------|
G|-4-4-5-4-----4-|-4-4------4-|-4-4-5-4---7-4-|-4-4------4-|
D|---------7-5---|-----7-5-7--|---------7-----|-----7-5-7--|
A|---------------|------------|---------------|------------|
E|---------------|------------|---------------|------------|

[BRIDGE]
E|------------|------------|--------------------|
B|------------|------------|------------5-3-5-7-|
G|-4-2-4-2-4*-|-4-2-4-2-4*-|-4-2-4-2-4*---------|
D|------------|------------|--------------------|
A|------------|------------|--------------------|
E|------------|------------|--------------------|

[CHORUS 2]
E|----------------------------------|-------------------------|----------------|-------------|
B|---------8-7---7---12p10----10-12-|---------8-7-8-10-12b-10-|---------8-10---|---------8-7-|
G|-9-9-9-7-----9---7-------12-------|-9-9-9-7-----------------|-9-9-9-7------9-|-9-7-9-7-----|
D|----------------------------------|-------------------------|----------------|-------------|
A|----------------------------------|-------------------------|----------------|-------------|
E|----------------------------------|-------------------------|----------------|-------------|

[OUTRO]
E|-----------|-----------|------------------------|    |-----|
B|-------7-8-|-------7-8-|-------7-8---10-8-7-8---|    |-----|
G|-9-x-9-----|-9-x-9-----|-9-x-9-----9----------9-|    |-9-9-|
D|-9-x-9-----|-9-x-9-----|-9-x-9------------------| x2 |-9-9-|
A|-7-x-7-----|-7-x-7-----|-7-x-7------------------|    |-7-7-|
E|-----------|-----------|------------------------|    |-----|

[END]

*********************
KEY
 b - bend
 h - Hammer on
 p - Pull off
 ~ - Sustain
 * - Pinch harmonic
*********************
Suggest correction
Give kudos to tab author, rate the tab!
1 2 3 4 5
comments
print report bad tab
guest
You may want to rate the tab now too:
select rating
Wanna post a correction for this tab? Suggest correction